Tablatura para Bajo de Annette Moreno: Angel Guardián
Conexión · Inscripción
Letras y Acordes
Pantalla Completa
Imprimir
Versión Texto
Añadir Favorito
Otras Versiones

Mostrar Diagramas
Desfile Automático
Formato del Texto


Angel Guardián(BAJ)

Annette Moreno

calidad:
amrn0432
AUTOR: Annette Moreno
ALBUM: Annette Moreno (2006)
Enviado por Carolina
INTRO:2 VECES

G-----------------------------------------------
D-----------------------------------------------
A-------------2---2-2----3----3-3----5---5-5----
E----3----3-3-----------------------------------

I ESTROFA

G--------------------------------------------------
D--------------------------------------------------
A------------------------------2---------------2-2-
E-3----------3--3----------------------------------
  Cuando me levanto, no se que va a ser de ese dia

G--------------------------------------------------
D--------------------------------------------------
A---------------------------3-3----------------5---
E--------------3----------------------------------
 mi angel guardian a mi me cuida, mi fe esta siempre

G-------------------------------------------------------
D-------------------------------------------------------
A-----5--5-------------------------------2----------2--2
E------------3-----------3--3---------------------------
 en la vida, cuando era pequeña, hasta ahora en mis dias

G-------------------------------------------------------
D-------------------------------------------------------
A----------3------------3-3--------------5-------5---5--
E-------------------------------------------------------
 solo Dios sabe que la vida, El me la ha dado hasta ahorita

PRECORO

G--------------------------------------------------
D--------------------------------------------------
A-----------------------------2-----------2-2------
E-0---------------0--0-----------------------------
   Yo recuerdo lo momentos de tener que morir
Este fichero es trabajo propio de su transcriptor y representa su interpretación personal de la canción. El material contenido en esta página es
para exclusivo uso privado, por lo que se prohibe su reproducción o retransmisión, así como su uso para fines comerciales.

© LaCuerda.net · Aviso Legal · Privacidad