Acordes de Guitarra » A »Annette Moreno » Guardián de mi corazón (Tab)

Guardián de mi corazón
Annette Moreno

Letras, Acordes y Tabs para Guitarra, Bajo y Ukulele

  • Intro: Bm - Gbm - Bm - Gbm - G - Asus4 - G - A - A
    
    Bm                 Gbm Bm                   Gb
      Como un día sin el sol,  como una noche sin estrellas,
    Bm             Gbm Bm                   Gb
      así es una ilusión   que no puedes tenerla.
    G                 A             Gb         Bm
      Se despierta el furor guardado en mi corazón,
           Bm7      Em7         G             D
      pero nadie me oye, el silencio triunfó,
           Bm      A
      otra vez me mudó.
    
      Quiero curar mis heridas, pero no por encima,
      quiero quemar el veneno para tener la verdad.
      Así quiero sanar del cuchillo profundo,
      sacando los gusanos que me comen el alma,
      que me hacen llorar.
    
      Coro:
    
  • Intro: Bm F#m Bm F#7 G D Em F#
    Bm                 F#m  Bm                      F#7
    Como un día sin el sol, como una noche sin estrellas,
    Bm             F#m  Bm               F#7
    Así es una ilusión, que no puedes tenerla,
    
    Puente:
    G                Asus2          F#7       Bm
    Se despierta el furor, guardado en mi corazón,
          Bm/A      G                   D/F#
    Pero nadie me oye, el silencio triunfo,
                  Asus4 A
    Otra vez me mudó,
    Bm                   F#m  Bm             F#7
    Quiero curar mis heridas, pero no por encima,
    Bm                 F#m   Bm              F#7
    Quiero quemar el veneno, para tener la verdad,
    
    Puente:
    G            Asus2          F#7        Bm
    
  • Hola como están esta es mi primera trascripción y espero que les guste
    ya que es una canción súper plena, la mayor parte de esta canción es
    solo arpegios y se la toca con dos guitarras, por ahora les mando lo
    de una de las guitarras próximamente les mandare la de la otra,
    algunas partes no tienen arpegio para esta guitarra o por lo menos yo
    no la escucho pero en sí creo que esta bien....
    
    Intro:
    
    e--14-14-14-14-12---------------12-12h14---14-14-14-14-12-------------
    B-----------------15-14------15---------------------------15-14-------
    G-----------------------14--------------------------------------14----
    D---------------------------------------------------------------------
    A---------------------------------------------------------------------
    E---------------------------------------------------------------------
    
    
    e---------------------------------------------------------------------
    B---------------------------------------------------------------------
    G-12-14-14/16---14h16-1
  • Hola gente aquí les va una de mis
    transcripciones espero les guste suena
    muy bien y que dios me los bendiga.....
    
    
    ESTE ES EL INTRO
    
    e---------------------------------------------
    B------3—---3—---3—---3—---2—---2---—2---—2---
    G-----4—---4—---4—---4—---2—---2—---2---—2----
    D----4—---4—---4---—4—---4—---4—---4---—4—----
    A---2—---2—---2—---2—---4—---4—---4---—4------
    B---------------------------------------------
    
    e---------------------------------------------
    B------3----3----3----3----2----2----2----2---
    G-----4----4----4----4----3----3----3----3----
    D----4----4----4----4----4----4----4----4-----
    A---2----2----2----2----4----4----4----4------
    B---------------------------------------------
    
    e---------------------------------------------
    B-----3---3---3---3---2---2---2---2-----------
    G----0---0---0---0---2---2---2---2------------
    D---0---0---0---0---2---2---2---2-------------
    A--2---2---2---2---0---0---0---0--------------
    B-----------------------------------
  • +
    ¡Colabora con nosotros!
    Envíanos tu versión de esta canción

Letra de Guardián de mi corazón
Como un día sin el sol, como una noche sin estrellas,
así es una ilusión que no puedes tenerla.
Se despierta el furor guardado en mi corazón,
pero nadie me oye, el silencio triunfó,
otra vez me mudó.
Quiero curar mis heridas, pero no por encima,
quiero quemar el veneno para tener la verdad.
Así quiero sanar del cuchillo profundo,
sacando los gusanos que me comen el alma,
que me hacen llorar.
Guardián de la Puerta de Amor,
déjame entrar, necesito tu calor,
quiero acariciar mi estrella otra vez.
Guardián de la Puerta de Valor,
déjame entrar, para decirle a Dios,
que ya no aguanto más, lo que es la realidad.
Por favor Guardián, Guardián de mi corazón,
de mi corazón.
Necesito tu Amor, necesito tu calor,
necesito mi estrella, Guardián de la Puerta dejadme entrar.
Guardián de la Puerta de Valor...
===============
Acordes: EADGBe




[Guardián de mi corazón chords][Guardián de mi corazón cifra]
© LaCuerda.net · aviso legal · privacidad · es · en · pt · contacto