Acordes de Guitarra » A »Annette Moreno » Un Angel Llora (Tab)

Un Angel Llora
Annette Moreno

Letras, Acordes y Tabs para Guitarra, Bajo y Ukulele

  •     Em                        Am
    Las flores ya no llegan, el poema se acabo
        D                           G          B
    lo que un dia fue amor, en amargura se volvio.
     Em                       Am
    Ella quiere regresar el tiempo que paso,
     B                       Bsus4         B
    para poder revivir los placeres del ayer
    
           =CORO=
            Em   Am       D      G       C
    Ya no puede ver las cosas igual, porque en el mar 
              Bsus4      B           Em   Am         D
    de olvido todo ya quedo, ya el oceano a perdido su
           G    C(add9)
    color azul,    
                   G                  D            
    las estrellas miran, la luna la abraza, y un angel
      Em  D  C
    llora.
    
  • E/-------------------------------------------
    B/-------------------------------------------
    G/--------------12-11-11-9--11-9--7/9--7-7--5
    D/----------9--------------------------------
    A/-------------------------------------------
    E/-------------------------------------------
    
    E/--------------------------------------------------
    B/----5-6-7-7-7-7-7-------8--7-7-7-7-7--------------
    G/---------------------9--------------------11-12-11
    D/-------------------9-------------------9----------
    A/--------------------------------------------------
    E/--------------------------------------------------
    
    lAS FLORES YA NO LLEGAN, EL POEMA SE ACABO,
    LO QUE UN DIA FUE AMOR EN AMARGURA SE VOLVIO (tab2)
    
    tab2:
    
    e/-------------------------------------------------
    
  •           Em              Am        C
    e/----3-2-2-0-2-0----------------0-2-2h3-3-3-3-3-
    B/-----------------3/5-3/5-3-1-------------------
    G/-4---------------------------------------------
    D/-----------------------------------------------
    
           B7               Em
    e/----0-3-2-2-2-2-----2-3-2-
    B/--------------------------
    G/-4----------------4-------
    D/--------------------------
    
    
         Em
    Las flores ya no llegan
        Am
    El poema se acabo
         D
    Lo que un dia fue amor
            G          B
    
  • +
    ¡Colabora con nosotros!
    Envíanos tu versión de esta canción

Letra de Un Angel Llora
Las flores ya no llegan, el poema se acabo
lo que un dia fue amor, en amargura se volvio.
Ella quiere regresar el tiempo que paso,
para poder revivir los placeres del ayer
Ya no puede ver las cosas igual, porque en el mar
de olvido todo ya quedo, ya el oceano a perdido su
color azul,
las estrellas miran, la luna la abraza, y un angel
llora.
Pasaron ya los años, ya el se olvido
de el amor que prometio cuando la conocio.
Entra a la habitacion, y en la cama el la vio
toca su cuerpo frio, la tristeza la mato.
( aqui entra esto Em, Am, Em )
Las flores ya llegaron, el poema empezo
sobre una tumba fria el llora su dolor
El solo quiere regresar el tiempo que paso
para poder perderse asi en la hermosura de su voz
( aqui sube a Fa )
( cualquier duda con esta canzion comunicate conmigo)aaa y le
kiero mandar un saludo a la marbe, las geme, la naye, iram, y el
borreguito,.... adios




[Un Angel Llora chords][Un Angel Llora cifra]
© LaCuerda.net · aviso legal · privacidad · es · en · pt · contacto