Acordes de Guitarra » A »Alex Ubago » Me muero por conocerte (Tab)

Me muero por conocerte
Alex Ubago

Letras, Acordes y Tabs para Guitarra, Bajo y Ukulele

  •               SIm              MIm              LA            LA7
        e /1.----------------|----------------|--------------|---------------
        b /2.---3------3-----|----------------|---2-----2----|---2-----2-----
        g /3.---4------4-----|---0------0-----|---2-----2----|---0-----0-----
        d /4.----------------|---2------2-----|--------------|---------------
        a /5.------2------2--|------2------2--|-----0------0-|-----0-----0---
        e /6.----------------|----------------|--------------|---------------
    
              RE            FA#           SOLm         SOL 
        --------------|--------------|------------|-----------------|
        ---3-----3----|--------------|------------|-----------------|
        ---2-----2----|---3-----3----|--4----4----|----0-----0------|
        --------------|---4-----4----|--5----5----|----0-----0------|
        -----0-----0--|--------------|------------|-----------------|
        --------------|-----2-----2--|----3----3--|------3------3---|
    
        ASI SERAN TODOS LOS BAJEOS,NO SE TOCAN LOS ACORDES ASI DE CORRIDO
        COMO LOS PUSE , UNICAMENTE ASI SERAN LOS BAJEOS,
        EN LA CANCION SE VEN LOS ACORDES, Y SE VAN TOCANDO CONFORME LOS BAJEOS.
      OJO EN EL CORO, SE TOCAN CON UNOS PEQUEÑOS RASGUEOS ,
    
  • Cm            Cm                     Fm
    Me muero por suplicarte que no te vayas mi vida
                  A#                       D#
    me muero por escucharte decir las cosas que nunca digas
                   Cm                     Fm
    mas me cayó y te marchas aun tengo la esperanza
                    A#                       D#
    de ser capaz algún día de no esconder las heridas 
             G          G#                    A#         D#
    que me duelen al pensar que te voy queriendo cada día 
            Fm               G#      A#  Cm
    un poco mas cuanto tiempo vamos a esperar
    
    Cm                Cm                            Fm
    Me muero por abrazarte y que me abraces tan fuerte
                  A#                      D#
    me muero por divertirte y que me beses cuando despierte
                 Cm                     Fm
    acomodado en tu pecho hasta que el sol aparezca
                         A#                       D#
    
  • Esta es la canción  de ubago. Las siete primeras notas corresponden al 
    intro lo demas comienza al mismo tiempo que empieza a cantar.
    -Empieza a cantar después del signo *
    
    
    ||---------------------*-----------------------------------------------||
    ||---------------------*-----------------------3-------1----1----------||
    ||-3-3--3---3------3-3-*--3--3---3------3-------1-----1------1-3-------||
    ||--------3------------*-------3----------1----------------------------||
    
    ||---------------------------------------------------------------------||
    ||----------3--------1------5-------------1----------------------------||
    ||---3--------1----1------------5---1--1-------3----------1--3---------||
    ||-----1------------------3------4----------1-----1----4---------------||
    
    
    ||---------------------------------------------------------------------||
    ||---------------------------------3-------1----1----------------------||
    ||------3-3---3--3---3------3-------1-----1------1-3-----------
  • +
    ¡Colabora con nosotros!
    Envíanos tu versión de esta canción

Letra de Me muero por conocerte
ASI SERAN TODOS LOS BAJEOS,NO SE TOCAN LOS ACORDES ASI DE CORRIDO
COMO LOS PUSE , UNICAMENTE ASI SERAN LOS BAJEOS,
EN LA CANCION SE VEN LOS ACORDES, Y SE VAN TOCANDO CONFORME LOS BAJEOS.
OJO EN EL CORO, SE TOCAN CON UNOS PEQUEÑOS RASGUEOS ,
PARA MI , SUENAN BIEN SOLO PARA ABAJO, Y LOS VAS DANDO CONFORME ESCUCHES
Me muero por suplicarte que no te vayas mi vida
me muero por escucharte decir las cosas que nunca digas
mas me cayó y te marchas aun tengo la esperanza
de ser capaz algún día de no esconder las heridas
que me duelen al pensar que te voy queriendo cada día
un poco mas , cuanto tiempo vamos a esperar
Me muero por abrazarte y que me abraces tan fuerte
me muero por divertirte y que me beses cuando despierte
acomodado en tu pecho hasta que el sol aparezca
me voy perdiendo en tu aroma me voy perdiendo en tus labios
que se acercan susurrando palabras que llegan a este pobre
corazón voy sintiendo el fuego en mi interior
Me muero por conocerte saber que es lo que piensas
abrir todas tus puertas y vencer estas tormentas
que nos quieran abatir centrar en tus ojos mi mirada
cantar contigo al alba besarnos hasta desgastarnos
nuestros labios y ver en tu rostro cada día
crecer esa semilla crear soñar dejar todo
surgir aparcando el miedo a sufrir
Me muero por explicarte lo que pasa por mi mente
me muero por entregarte y seguir siendo capaz de sorprenderte
sentir cada día ese flechazo al verte
que más dará lo que digan que más dará lo que piensen
si estoy loca es cosa mía ahora vuelvo a mirar el mundo
a mi favor vuelvo a ver brillar la luz del sol
Me muero por conocerte saber que es lo que piensas
abrir todas tus puertas y vencer estas tormentas
que nos quieran abatir centrar en tus ojos mi mirada
cantar contigo al alba besarnos hasta desgastarnos
nuestros labios y ver en tu rostro cada día
crecer esa semilla crear soñar dejar todo
surgir aparcando el miedo a sufrir.
GRACIAS POR VER MI TRANSCRIPCION, ESPERO Y TE AYUDE CON CUALQUIER
CHICO O CHICA QUE SE LA DEDIQUES, PORFAVOR CALIFICA MI TRADUCCION
CON EL PUNTAJE QUE CONSIDERES ADECUADO, (PONLE 10 PLOCS =) )




[Me muero por conocerte chords][Me muero por conocerte cifra]
© LaCuerda.net · aviso legal · privacidad · es · en · pt · contacto