Acordes de Guitarra » A »Alex Ubago » Dame tu aire (Tab)

Dame tu aire
Alex Ubago

Letras, Acordes y Tabs para Guitarra, Bajo y Ukulele

  • LAm                FA          LAm             FA  
    ------------------------------------------------------16---------
    -------0/1/0---0----1--------------0/1/0---0-----1----16---------
    -----2---------------2-----------2----------------2---16---------
    ---2---------------3---3--------2---------------3--------16--18--
    -0----------------3-----------0----------------3-----------------
    -----------------------------------------------------------------
    
    
    LAm    FA
    Hoy te perdi
            LAm          FA
    una vez más al despertar
         MI           LAm
    si soñara la realidad
        MI              LAm
    y viviera lo que se fue.
    
    
        LAm    FA
    
  • MI       LA           MI          LA 
    Hoy te perdí una vez mas al despertar
    SI                 LA        SI            LA
    Si soñara la realidad y viviera lo que se fue
    MI           LA                 MI        LA  
    Mi humor miralo pintando un cuadro sin color
    SI                     LA          SI          LA 
    Puedo ver un paisaje gris que refleja mi interior
    MI          LA
    Y en él.... y en él.....
    
    ESTRIBILLO:
    LA           MI          SI      
    Palomas blancas vuelan raso 
               DO#m           LA
    Sobre el tejado brilla el sol 
              MI       SI
    Y ríen todos menos yo
               LA         MI
    Que ahora soy un reo mas 
    
  • C#m      A            C#m           A
    Hoy te perdí una vez más al despertar,
         G#m           A       G#m             A
    si soñara la realidad y viviera lo que se fue...
         C#m     A                 C#m          A
    Mi humor, míralo, pintando un cuadro sin color,
          G#m              A         G#m           A
    puedo ver un paisaje gris que refleja mi interior,
         G#      F#m
    y en él, y en él...
    
    A         E             B               C#m             A
    Palomas blancas vuelan raso, sobre el tejado brilla el sol,
            E           B
    y ríen todos menos yo.
               A          E                B          C#m
    Que ahora soy un reo más, pidiendo a gritos la verdad,
                A           E                B  C#m
    mi vida eres tú y, si te vas vendrá la oscuridad.
    
    
  •   C#m        A        C#m        A       C#m A
    E|-------------------|-------------------|-4-5-|
    B|-------5-4-------5-|-------5-4-------5-|-5-5-|
    G|-----6---------6---|-----6---------6---|-x-x-|
    D|---6---------7-----|---6---------7-----|-x-x-|
    A|-4---------7-------|-4---------7-------|-x-x-|
    E|-------------------|-------------------|-x-x-|
    
    C#m       A          C#m           A
    Hoy te perdí una vez más al despertar,
         G#            A        G#              A
    si soñara la realidad, y viviera lo que se fue…
    
    Mi humor, míralo, pintando un cuadro sin color,
    puedo ver un paisaje gris que refleja mi interior
        G#m       F#m
    y en él, y en él…
    
    A         E              B                C#m             A
      Palomas blancas vuelan raso, sobre el tejado brilla el sol
    
  • C#m A G#7 A (x2)
    
    C#m     A
    Hoy, te perdí
    C#m               A
    una vez más al despertar
    G#7          A
    si soñara la realidad
        G#7          A
    y viviera lo que se fue
       C#m     A
    mi amor, míralo,
       C#m            A
    pintando un cuadro sin color,
          G#7         A
    puedo ver un paisaje gris,
           G#7         A
    que refleja mi interior,
    E          F#m
    y en él, y en él...
    
  • E -----------------------------|----------------------------|-4-----4--
    B --------5---4----------------|--------5---4---------------|-5---7----
    G ------6---------4-----4-6----|------6---------4-----4-6---|-6--------
    D ----6-----6---6-----7-----7--|----6-----6---6-----7-----7-|----------
    A --4---------------4----------|--4---------------4---------|----------
    E -----------------------------|----------------------------|----------
    
    
    VERSO:
    
      C#m               A               C#m              A
    E -----------4---------------0--------------------4--------------0--
    B --------5---------------2--------------------5--------------2-----
    G ------6---------------2------------------6--------------2---------
    D ----6---------------2------------------6--------------2-----------
    A --4---------------0-----------------4--------------0--------------
    E ------------------------------------------------------------------
       Hoy       te  pe-erdí     una vez más a-al despertar
    
    
    
  • +
    ¡Colabora con nosotros!
    Envíanos tu versión de esta canción
  • Tutorial
    HD
    Como Tocar (Dame Tu Aire )
    De Alex Ubajo Guitarra Tutorial (HD)
    6:25
  • Tutorial
    como tocar dame tu aire de alex ubajo guitarra tutorial parte 3
    2:11
  • Tutorial
    como tocar dame tu aire de alex ubajo guitarra tutorial parte 2.
    3:46

Letra de Dame tu aire
Hoy te perdi
una vez más al despertar
si soñara la realidad
y viviera lo que se fue.
Mi humor miralo
pintando un cuadro sin color
puedo ver un paisaje gris
que refleja mi interior
y en el, y en el
-estribillo-
Palomas blancas vuelan raso
sobre el tejado brilla el sol
y rien todos menos yo
Que ahora soy un reo mas
pidiendo a gritos la verdad
mi vida eres tu
y si te vas
vendra la oscuridad
Dame tu aire un dia mas
para que pueda respirar
que un rayo de luz
me haga brillar
que muera soledad
-estribillo-
Hoy soñare
que despierto junto a ti
y te canto canciones que
anoche te escribi
y llegare por ti
a donde nadie pudo ir
puedo ver mejor lugar
de tantos que conoci
y en el, y en el
(estribillo)
Que ahora soy un reo mas
pidiendo a gritos la verdad
mi vida eres tu
y si te vas
me cegara la oscuridad
Dame tu aire un dia mas
para que pueda respirar
que un rayo de luz
me haga brillar
que muera soledad.




[Dame tu aire chords][Dame tu aire cifra]
© LaCuerda.net · aviso legal · privacidad · es · en · pt · contacto