Acordes de Guitarra » A »Alex Ubago » Sigo Aquí (Tab)

Sigo Aquí
Alex Ubago

Letras, Notas, Punteos, Tablaturas y Acordes de Guitarra (Tabs & Chords)

  • Letra y Acordes
    A D A D  (2 veces)
    
      A        D            A
    Soy la pregunta del millon
             D             A
    siempre la interrogacion
           D         F#m       D
    no respondas que si porque si
    -----
     A              D        A
    Y que, que podrias tu decir
           D           A
    si yo no te voy a oir
              D
    no me entiendes
        F#m             D          A     D A D
    y nunca sere lo que esperas de mi.
    -----
    
    Jamas ya me vas a conocer
    
  • Tablatura
    e|----0-------0-------0-------0-------0-------0-------0-------0---|
    B|---2-2-----3-3-----2-2-----3-3-----2-2-----3-3-----2-2-----3-3--|
    G|--2---2---2---2---2---2---2---2---2---2---2---2---2---2---2---2-|
    D|-2-------0-------2-------0-------2-------0-------2-------0------|
    A|----------------------------------------------------------------|
    E|----------------------------------------------------------------|
    
       A          Dsus2      A
    e|----0----------0-----------0----|
    B|---2-2--------3-3---------2-2---|
    G|--2---2------2---2-------2---2--|
    D|-2----------0-----------2-------|
    A|--------------------------------|
    E|--------------------------------|
       Soy  la pregunta del millón
               Dsus2   A
    e|------------0-------0----|
    B|-----------2-2-----2-2---|
    G|----------3---3---2---2--|
    D|---------0-------2-------|
    
  • +
    ¡Colabora con nosotros!
    Envíanos tu versión de esta canción

Letra de Sigo Aquí
Soy la pregunta del millon
siempre la interrogacion
no respondas que si porque si
Y que, que podrias tu decir
si yo no te voy a oir
no me entiendes
y nunca sere lo que esperas de mi.
Jamas ya me vas a conocer
niño y hombre puedo ser
no me uses
ni apartes de ti
Y vi como alguien aprendio
lo que nadie le enseño
no me entienden
no estoy aqui
***..( el rasgeo es + fuerte)
Y yo solo quiero ser real
sentir el mundo igual
que los otros
seguir siempre asi
porqUe yo tendria que cambiar
nadie mas lo va a intentar
y no entienden que sigo aqui
***..
Y tu ves lo que ellos nunca ven
te daria el cien por cien
me conoces y ya no hay temor
Yo mostraria lo que soy
si tu vienes donde voy
no me alcanzan
si eres mi amigo mejor
***..
Que sabran del mal y el bien
yo no soy lo que ven
todo el mundo durmiendo y yo sigo soñando porque
sus palabras susurran mentiras que nunca creere
***..
Y yo solo quiero ser real
y sentir el mundo igual
que los otros por ellos por mi
Por que yo tendria que cambiar
nadie mas lo va a intentar
estoy solo y sigo aqui
estoy aqui
sigo aqui
sigo aqui
Espero q les guste .... si tienen alguna consulta solo
escríbanme...grax



© LaCuerda.net · Aviso Legal · Privacidad