Acordes de Guitarra » A »Alex Ubago » Me Arrepiento (Tab)

Me Arrepiento
Alex Ubago

Letras, Acordes y Tabs para Guitarra, Bajo y Ukulele

  •    C - Am (x2)
    e|-----------0-|
    B|-1-3-1-3-1---|
    G|-------------|   x4
    D|-------------|
    A|-------------|
    E|-------------|
    
    F                     Am
    Ya no me llamas por teléfono
       G                   F
    es la señal que todo acabó,
                           Am
    antes lo hacías, y siempre era yo
          G
    quien te pedía que no.
    
    F                     Am
    Desde ese día en que te abandoné,
       G                   F
    
  • INTRO C# A#m C# A#m
    
      C# - A#m
    e|--------------4-6--|
    B|-----------6-------|
    G|---6---8-----------|   x4
    D|-6---6---6---------|
    A|-------------------|
    E|-------------------|
    
    
    F#                      A#m
      Ya no me llamas por telefono
         G#                     F#
      es la señal que todo acabo.
    F#                      A#m
      Antes lo hacias y siempre era yo
            G#Sus4        G#
      quien te pedia que no...
    
    
  • INTRO C# A#m C# A#m
    
      C# - A#m
    e|--------------4-6--|
    B|-----------6-------|
    G|---6---8-----------|   x4
    D|-6---6---6---------|
    A|-------------------|
    E|-------------------|
    
    
    F#                      A#m
      Ya no me llamas por telefono
         G#                     F#
      es la señal que todo acabo.
    F#                      A#m
      Antes lo hacias y siempre era yo
            G#Sus4        G#
      quien te pedia que no...
    
    
  •    C - Am (x2)
    e|-----------0-|
    B|-1-3-1-3-1---|
    G|-------------|   x4
    D|-------------|
    A|-------------|
    E|-------------|
    
    F                     Am
    Ya no me llamas por teléfono
       G                   F
    es la señal que todo acabó,
                           Am
    antes lo hacías, y siempre era yo
          G
    quien te pedía que no.
    
    Desde ese día en que te abandoné,
    juraste volverías por mí,
    yo no quería, y no volviste más,
    
  • INTRO:  C
    
    
    e I------------0-0--I
    B I--1-3-1-3-1------I
    G I-----------------I
    D I-----------------I    x4
    A I-----------------I
    E I-----------------I
    
    F                        Am
       Ya no me llamas por teléfono
        G                   F
    es la señal que todo acabó
                          Am
    Antes lo hacías y siempre era yo
          G            F
    quien te pedía que no.
    
    F                          Am
    
  •    C#                  Bbm
    e--------------------------------------------
    B--------4---6---------------4----6----------
    G----6-------------------6-------------------
    D---6---6---6-----------6---6---6------------
    A--------------------------------------------
    E--------------------------------------------  Guitarra 1
    
    e----------------4h6---------------9/11/9/11-
    B--------------------------------------------  Guitarra 2
    
       C#                  Bbm
    e--------------------------------------------
    B--------4---6---------------4----6----------
    G----6-------------------6-------------------
    D---6---6---6-----------6---6---6------------
    A--------------------------------------------
    E--------------------------------------------  Guitarra 1
    
    e----------------------------------9/11/9/11-
    
  • +
    ¡Colabora con nosotros!
    Envíanos tu versión de esta canción
  • Tutorial
    HD
    Como Tocar (Me Arrepiento )
    De Alex Ubajo Guitarra Tutorial(HD)
    6:23

Letra de Me Arrepiento
Ya no me llamas por telefono
es la señal que todo acabo.
Antes lo hacias y siempre era yo
quien te pedia que no...
Desde ese dia que te abandone
juraste volverias por mi.
Yo no queria y no volviste mas
y hoy te vengo a decir
Si estas contestame, vamos atiendeme
yo se que he sido un tonto y que
de ti me enamore y no lo supe ver
Vuelve, que el tiempo pasa y yo te hecho de menos
en este punto te sere sincero
y dejare que hable mi corazon...
Que esta latiendo!, desesperado por ir a buscarte
pero es inutil porque se ha hecho tarde
y me arrepiento de lo que paso
VERSO 2
Cuando empezamos eras para mi
tan solo un pasatiempo nomas,
asi que nunca te considere
y te pase a dejar
Y ahora todo cambio,
quien te llama soy yo
es que mi calculo fallo
inversamente no, no te olvide hasta hoy.
Vuelve, que el tiempo pasa y yo te hecho de menos
en este punto te sere sincero
y dejare que hable mi corazon...
Que esta latiendo!, desesperado por ir a buscarte
pero es inutil porque se ha hecho tarde
y me arrepiento de lo que paso
(SUBE MEDIO TONO)
Vuelve, que el tiempo pasa y yo te hecho de menos
en este punto te sere sincero
y dejare que hable mi corazon...
Que esta latiendo!, desesperado por ir a buscarte
pero es inutil porque se ha hecho tarde
y me arrepiento de lo que pasoooo




[Me Arrepiento chords][Me Arrepiento cifra]
© LaCuerda.net · aviso legal · privacidad · es · en · pt · contacto