Acordes de Guitarra » A »Alejandro Sanz » Y sólo se me ocurre amarte (Tab)

Y sólo se me ocurre amarte
Alejandro Sanz

Letras, Acordes y Tabs para Guitarra, Bajo y Ukulele

  •     Intro: Em7/D-A7*-A7**-F#m7-B7*-B7
    
        Em7/D              A7*-A7**
        Tan pura la vida y tú
                     F#m7
        tan llena de paz...
          B7*-B7
        y sólo se me ocurre amarte
    
        Em7/D             A7*-A7**
        Llenas mi vida de luz
                             F#m
        llenas el cielo, la tierra y el mar
                    B7*-B7
        y a mi tan sólo se me ocurre amarte
    
        Em7/D
        No existe un corazón que lo resista, niña
        A7*                    A7**
        pero si lloras quiero que mis ojos
    
  • e-------------------------------------------------------------------------
    B-12-12-10-10-8-8-7--10/12-10-10-8-8---12-12-10-10-8-8-7--10/12-14-15-14--
    G-------------------------------------------------------------------------
    D-------------------------------------------------------------------------
    A-------------------------------------------------------------------------
    E-------------------------------------------------------------------------
    
    
    e-------------------------------------------------------------------------
    B-10-10-8-8-7-7-5--8/10-8-8-7-7---10-8-8-7-7-5--8/10-12-13-12-------------
    G-------------------------------------------------------------------------
    D-------------------------------------------------------------------------
    A-------------------------------------------------------------------------
    E-------------------------------------------------------------------------
    
    
    Em7               A
    Tan pura la vida y tu
                  F#m
    tan llena de paz 
    
  • intro: (Emmaj7-9, Amaj7, F#m7-9, B6, B) x 2
    
    
    Emmaj7-9         Amaj7
    Tan pura la vida y tu
                F#m7-9
    tan llena de paz
        B6                B
    Y solo se me ocurre amarte
    
    Llenas mi vida de luz
    llenas el cielo, la tierra y el mar
    Y a mi tan solo se me ocurre amarte
    
    No existe un corazón que lo resista niña
    Pero si lloras quiero que mis ojos
    sigan cada lagrima tuya
    y hasta que la pierda de vista
    
              G#dim
    
  • Em7               A
    Tan pura la vida y tu
                  F#m
    tan llena de paz
       B7
    y solo se me ocurre amarte
    Em7                A
    Llenas mi vida de luz
                         F#m
    llenas el cielo, la tierra y el mar
                B7
    y a mi tan solo se me ocurre amarte
    Em7
    No existe un corazón que lo resista niña
    A
    pero si lloras quiero que mis ojos
     F#m
    sigan cada lagrima tuya
        B7
    hasta que la pierdan de vista
    
  • E--------------------------------------|
    B--12-12-10-10----------12-10-10-------|
    G--------------12-12-11----------12-12-|
    D--------------------------------------|
    A--------------------------------------|
    E--------------------------------------|
    
    E-------------------------9-10-9--|
    B-12-12-10-10-------10-12---------|
    G-------------12-12---------------|
    D---------------------------------|
    A---------------------------------|
    E---------------------------------|
    
    E------------------------------------|
    B-10-10---------------10-------------|
    G-------12-12-11-11-9----12-12-11-11-|
    D------------------------------------|
    A------------------------------------|
    E------------------------------------|
    
  • B|12 12/10 10/8  8/7 7/12 10 10/8  8 12 12/10  10/8 8/10 10/12 14/15 14 
    G| x  x/ x  x/x  x/x x/x   x  x/x  x  x  x/ x   x/x x/x   x/x   x/x   x
    D| 9  9/ 7  7/5  5/4 4/9   7  7/5  5  9  9/ 7   7/5 5/7   7/9  11/12 11
    A|
    E|
    
    e| 
    B|10 10/8   8/7  7/5 5/10 8  8/7  7  10  10/8   8/7  7/8  8/10 12/13 12 
    G| x  x/x   x/x  x/x x/x  x  x/x  x   x   x/x   x/x  x/x  x/x   x/x   x
    D| 7  7/5   5/4  4/2 2/7  5  5/4  4   7   7/5   5/4  4/5  5/7   9/10  9
    A|
    E|
    
    
    Em7/D                    A7  
        Tan pura la vida y tú
                     F#m7/E 
        tan llena de paz... 
           B7
        y sólo se me ocurre amarte
    
  • +
    ¡Colabora con nosotros!
    Envíanos tu versión de esta canción

Letra de Y sólo se me ocurre amarte
Tan pura la vida y tú
tan llena de paz...
y sólo se me ocurre amarte
Llenas mi vida de luz
llenas el cielo, la tierra y el mar
y a mi tan sólo se me ocurre amarte
Em7/D
No existe un corazón que lo resista, niña
pero si lloras quiero que mis ojos
sigan cada lágrima tuya
y hasta que la pierdan de vista
La miro a ella y te miro a ti
usa mi alma como una cometa
y yo muero de ganas
de encontrar la forma de enseñarte el alma
y sólo se me ocurre amarte
¿Cómo va a ser eso?
si aún cuando sale la luna
y da en mi ventana
Ya no te puedo dejar de querer
nos hemos reído y llorado los tres
yo quiero darte mi alegría
mi guitarra y mis poesías
y sólo se me ocurre amarte
¿Cómo va a ser eso?
si aún cuando sale la luna
Y da en mi ventana
no te puedo dejar de querer
nos hemos reído y llorado los tres
yo quiero darte mi alegría
mi guitarra y mis poesías
y sólo se me ocurre amarte
y sólo se me ocurre amarte
Tan pura la vida y tú
tan llena de paz y de luz
y sólo se me ocurre amarte
Llenas mi vida de luz...
llenas mi cielo, mi tierra y mi mar
y a mi tan sólo se me ocurre amarte
La miro a ella y te miro a ti
usa mi alma como una cometa
y yo muero de ganas
de encontrar la forma de enseñarte el alma
y sólo se me ocurre amarte
¿Cómo va a ser eso?
si aún cuando sale la luna
y da en mi ventana
no te puedo dejar de querer
si hemos reído y llorado los tres
yo quiero darte mi alegría
quiero darte algo importante
y sólo se me ocurre amarte
G……………….
Como va a ser eso...
…………………………………………… ESTRIBILLO (BIS)
y sólo se me ocurre amarte
y sólo se me ocurre amarte
Acorde final: Em^




[Y sólo se me ocurre amarte chords][Y sólo se me ocurre amarte cifra]
© LaCuerda.net · aviso legal · privacidad · es · en · pt · contacto