Acordes de Guitarra » A »Alejandro Sanz » Amiga Mía (Tab)

Amiga Mía
Alejandro Sanz

Letras, Acordes y Tabs para Guitarra, Bajo y Ukulele

  • INTRO:  Bm9 Em7 A9 Dmaj7 F#4/7 F#7
    
           Bm9                                  Em7
           amiga mía, lo se,     solo vives por él
                                               A
           que los sabe tambien, pero el no te ve como yo
                                    D9
           suplicarle a mi boca que diga
    
           que me ha confesado entre copas
          Em7
           que es con tu piel con quien sueña de noche
          F#7
           Y que enloquece con cada boton que
    
         Bm9
           te desabrochas pensando en sus manos
          Em7
           el no te ha visto temblar esperando
         F#4/7                FA#7/A#
    
  • ....SI HAY DIOS.
    Si teneis partituras de Julio Iglesias o de Pancho Cespedes, 
    enviarmelas porfavor.     Milans@retemail.es. 
    
    
    
    Intro: Bm9 - Em - A7 - D7  - F#4 - F#
    
    
    
       Bm9            
    A/ Amiga mia, lo se,
                Em
    solo vives por el, que lo sabe tambien,
                A
    pero el no te ve como yo suplicarle a mi boca
    F#m
    que diga que me ha confesado entre copas, 
    Em7
    que es con tu piel con quien suenia de noche 
    
  •      LA9 REm6 SOL7  MI7  MI4  DO7  DOadd9 FA7  LAm7 MI7/9-
    MI----0---1----1-----0----0----0-----0------0----0----1
    SI ---0---0----0-----3----0----0-----3------1----1----0
    SOL---2---2----0-----3----2----0-----0------2----0----1-
    RE----2---0----0-----0----2----2-----2------3----2----2
    LA ---0---0----2-----4----2----3-----3------3----0----0
    MI ---0---x----3-----0----X----0-----0------0----0----0
    
    
    INTRO:  LA9   REm6  SOL7   DO7    MI4   MI
    
    
             LA9                          REm6
    VOZ 1: amiga mía, lo se,     solo vives por él
                                             SOL7
           que los sabe tambien, pero el no te ve como yo
                                       DO7 
           suplicarle a mi boca que diga
                     DOadd9
           que me ha confesado entre copas
    
  •    Bm*  B7  Em7  Em   A   A6    G   F#   F#7  F#m   F#m7  F#m8  D  D/G
    e |-2---2----0---0----0----0----3----2----2----2-----2-----2----2---0-|
    B |-2---3----2---0----2----2----3----2----2----2-----3-----3----3---3-|
    G |-2---2----0---0----2----2----0----3----3----2-----2-----2----2---2-|
    D |-4---3----2---2----2----0----0----4----2----4-----4-----2----0---0-|
    A |-2---2----2---2----0----0----0----4----4----4-----4-----4----0---0-|
    E |-2---2----0---0----0----0----3----2----2----2-----2-----2----0---2-|
    ***********************************************************************
    
    InTrO:
                                                                             |1RASGUEO|
        Bm*               Em7              A                  A6              G - F#7
    1e|-----------------------------------------------------------------------------|
    2B|-2---2---2----2----2---2---2----2---2---2----2----2----2---2---2---2---------|
    3G|--4----4---4----4---0----0---0---0---2----2----2---2----2----2---2--2--------|
    4D|---4----4---4----4---2----2---2---2---2----2----2---2----0----0---0--0-------|
    5A|-----------------------------------------------------------------------------|
       (ESTA ES UNA BASE PARA QUE SAQUEN EL INTRO, NO HAY MUCHO KE KAMBIARLE)
    
           Bm*                     Em7
    
  •   Bm9                          G5sus
    ------------------------------|----------------------------|
    --2-----2------2------2-------|-2------2------2------------|
    ------4------4------4------4--|------4------4-------4-6s7--|
    ----4------4------4------4----|----5------5-------5--------|
    --2---------------------------|-----------------7----------|
    ------------------------------|-3--------------------------|
      A                                 F#4      F#
    ----------------------------|---------------------|
    ----------------------------|---------------------|
    --6---4-6----4-6----4-6-7---|-6-----4-6--4---4-3--|
    ----5------5------5---------|---4-7---------4-----|
    ----------------------------|-5------------4------|
    --5-------------------------|------------2-----2--|
    
      Bm9   Gsus  F#m6  DenC   A4  E1
    e--2-----2------2-----2----0---3-
    B--2-----2------2-----3----0---5-
    G--4-----4------2-----2----2---4-
    D--4-----5------4-----4----2---2-
    
  •   Aadd9                         F-5
    |-----------------------------|-------------------------------|
    |-0-----0------0------0-------|-0------0------0-----------0h1-|
    |-----2------2------2------2--|------2------2-----------2-----|
    |---2------2------2------2----|----3------3--------0--3-------|
    |-0---------------------------|-------------------------------|
    |-----------------------------|-1-----------------------------|
      G9                            Cmaj7        Esus     E
    |-----------------------------|-------------------------------|
    |-0-----0------0------0-------|-0-------0---------------------|
    |-----2------2------2---5-----|-----0-2-----------------------|
    |---5------5------5-----------|---2----------7------7--6------|
    |-----------------------------|-3---------------5/7-----------|
    |-3---------------------------|--------------0---------0------|
    
    Verso:
    
    Aadd9            
    Amiga mia, lo se,
                Dm
    
  • +
    ¡Colabora con nosotros!
    Envíanos tu versión de esta canción
  • Tutorial
    Como tocar Amiga mia de Alejandro Sanz - Tutorial en Guitarra (HD)
    10:25

Letra de Amiga Mía
amiga mía, lo se, solo vives por él
que los sabe tambien, pero el no te ve como yo
suplicarle a mi boca que diga
que me ha confesado entre copas
que es con tu piel con quien sueña de noche
Y que enloquece con cada boton que
te desabrochas pensando en sus manos
el no te ha visto temblar esperando
una palabra, algun gesto un abrazo
el no te ve como yo suspirando
con los ojitos abiertos de par en par
escucharme nombrarle
Ay amiga mia lo se y el tambien
Amiga mía, no se que decir
ni que hacer para verte feliz
Ojala pudiera mandar en el alma
o en la libertad que es lo que a él le hace falta
llenarte los bolsillos de guerras ganadas
de sueños e ilusiones renovadas
yo quiero regalarte una poesia
tu piensas que estoy dando las noticias
Amiga mía, ojala algun dia
escuchando mi cancion de pronto entiendas
que lo que nunca quise fue contar tu historia
por que pudiera resultar conmovedora
pero perdona ,amiga mia no es inteligencia ni sabiduría
esta es mi manera de decir las cosas
no es que sea mi trabajo es que es mi idioma
Amiga mia princesa de un cuento infinito
amiga mia tan solo pretendo que cuentes conmigo
amiga mia a ver si uno de estos dias
por fin aprendo a hablar
sin tener que dar tantos rodeos
que toda esta historia me importa
porque eres mi amiga
amiga mía, lo se, solo vives por él
que los sabe tambien, pero el no te ve como yo
suplicarle a mi boca que diga
que me ha confesado entre copas
que es con tu piel con quien sueña de noche
Amiga mía, no se que decir
ni que hacer para verte feliz
Ojala pudiera mandar en el alma
o en la libertad que es lo que a él le hace falta
llenarte los bolsillos de guerras ganadas
de sueños e ilusiones renovadas
yo quiero regalarte una poesia
tu piensas que estoy dando las noticias
1-0 1-X 1-2 1-5
2-0 2-2 2-3 2-5
3-0 3-3 3-3 3-0
4-2 4-4 4-4 4-X
5-4 5-1 5-X 5-4
6-X 6-X 6-X 6-X




[Amiga Mía chords][Amiga Mía cifra]
© LaCuerda.net · aviso legal · privacidad · es · en · pt · contacto