Acordes de Guitarra » A »Alejandro Fernandez » No se olvidar (Tab)

No se olvidar
Alejandro Fernandez

Letras, Acordes y Tabs para Guitarra, Bajo y Ukulele

  •          D
    A)Yo no sé,
        F#m    Bm                  F#m
    porqué no puedo olvidar lo que fué
       G             Em         A7
    no sé resignarme    a no volverte a ver.
    
             D
    B)Ya lo ves,
        F#m    Bm                F#m
    te amé con cada rincón de mi ser
        G                E7
    te dí lo mejor de mi vida,
              A7
    mis sueños y mi fé.
    
          D          Bm
    Y no sé olvidar, 
              Em
    como lo hiciste tú
    
  •        D       A
    Yo no sé, porqué
         Bm                   F#m
    no puedo olvidar lo que fué
        G             Em
    no sé resignarme
             A7
    a no volverte a ver.
    
           D        A
    Ya lo ves, te amé
         Bm                F#m
    con cada rincón de mi ser
        G                  E7
    te di lo mejor de mi vida
               A7
    mis sueños y mi fé....
    
             D
    Y YO NO SÉ OLVIDAR
    
  •      RE          LA        SOL       MIm  LA
    E--------------------------------7------------
    B----7----------------------8-10---8--7-------
    G------9-7-----7-6-7-9----7-------------7--9--
    D--7-------5-7---------9----------------------
    A---------------------------------------------
    E---------------------------------------------
    
                RE            LA        SOL MIm    LA
    E---------------------------------7-9-10------------
    B------------7-----------7--------------8-8--7------
    G------6-7-9---------7-9---9-------------------7-9--
    D--7-9---------7-7-----------7-7--------------------
    A---------------------------------------------------
    E---------------------------------------------------
    
    =Estrofa=
            RE        LA        SIm                  FA#m
      YO NO SÉ... POR QUÉ... NO PUEDO OLVIDAR LO QUE FUE,
         SOL           MIm        LA             LA7
    
  • +
    ¡Colabora con nosotros!
    Envíanos tu versión de esta canción

Letra de No se olvidar
A)Yo no sé,
porqué no puedo olvidar lo que fué
no sé resignarme a no volverte a ver.
B)Ya lo ves,
te amé con cada rincón de mi ser
te dí lo mejor de mi vida,
mis sueños y mi fé.
Y no sé olvidar,
como lo hiciste tú
te has quedado calvada en mi pecho
como di fuera ayer.
No sé, cómo arrancar tus besos de mi piel
eres tú mi obsesión, mi tormento
y nada puedo hacer.
Yo daría hasta la vida por verte otra vez.

A)Yo no sé,
tal vez, llevarte por dentro
será la forma de hallarle paz a mi soledad.
B)Ya lo ves,
quizás amar sin medir fue un error
pero es imposible lograr que entienda el corazón.
No sé olvidaaaaaaaar
Transcrita por Mariano Rojas, Costa Rica
(guagon@sol.racsa.co.cr)




[No se olvidar chords][No se olvidar cifra]
© LaCuerda.net · aviso legal · privacidad · es · en · pt · contacto