Acordes de Guitarra » 0-9 »31 minutos » Dinosaurio anacleto (Tab)

Dinosaurio anacleto
31 minutos

Letras, Acordes y Tabs para Guitarra, Bajo y Ukulele

  • G          C           Em        D
    Soy un dinosaurio y me llamo Anacleto
         G           C           Em            D
    por cosas del destino no morí en la glaciación
     G           C             Em         D
    mis amigos se extinguieron me dejaron sólo
    G          C            Em         D
    y tuve que resignarme a esta situación
    G          C             Em           D
    me aburría mucho por que no tenía parientes
    G         C              Em        D
    nadie conocido con quien salir a jugar
    G             C            Em          D
    tuve que inventarme amigos para entretenerme
    G            C              Em         D
    sentarme frente a un espejo para conversar
    
    
    G          C        Em            D
    pero una mañana decidí cambiar mi suerte
    
  • -----------------------------------------------------
    ---3-----3------3-----3------3-----3------3-----3----
    ------0-----0------0-----0------0-----0------0-----0-
    -----------------------------------------------------
    ---5------------3------------2------------0----------
    -----------------------------------------------------
    
    Riff 2
    ---3-----3------3-----3------3-----3------3-----3----
    ------3-----3------3-----3------3-----3------3-----3-
    -----------------------------------------------------
    -----------------------------------------------------
    ---5------------3------------2------------0----------
    -----------------------------------------------------
    
    
    Riff 1
    
    RE          DO           SI       LA
    Soy un dinosaurio y me llamo Anacleto
    
  • G¡?        CoG¡?     G¡?             D
    pero una mañana decidí cambiar mi suerte
    G¡?           CoG¡?      G¡?        D
    y mandé un proyecto para la televisión
    G¡?          CoG¡?        G¡?        D
    se trataba de un programa para la familia
    G¡            CoG¡?        G¡?         D
    con cantantes y concursos, mucha diversión
    
    (aqui le ponen el dedito en la primera cuerda)
    
    G¡?        CoG¡?     G¡?             D
    el gerente del canal me llamó a su oficina
    G¡?        CoG¡?            G¡?         D
    le encantó el programa y me dijo 'hagámoslo'
    G¡?        CoG¡?     G¡?                  D
    firmamos contrato y después de un par de meses
    G¡?        CoG¡?        G¡?          D (se sigue tocando
    yo me convertí en figura de televisión  la nota)
    
    
  • |----------------------------------------------------|
    |--3-----3------3-----3------3-----3------3-----3----|
    |-----0-----0------0-----0------0-----0------0-----0-|
    |--0-------------------------------------------------|
    |---------------3------------2------------0----------|
    |----------------------------------------------------|
    
    Riff 2
    |--3-----3------3-----3------3-----3------3-----3----|
    |-----3-----3------3-----3------3-----3------3-----3-|
    |----------------------------------------------------|
    |--0-------------------------------------------------|
    |---------------3------------2------------0----------|
    |----------------------------------------------------|
    
    Riff 1
    
      Soy un dinosaurio y me llamo Anacleto
      por cosas del destino no morí en la glaciación
      mis amigos se extinguieron me dejaron sólo
    
  • ahora veamos el bajo( de nuevo yo)
    
    esto va en la primera estrofa
    -------------------------/
    ---------------0---------/
    -----3-3-0-2-2---0-0-----/
    -3-3---------------------/
    
    -------------------------/
    -------------------------/
    -----3-3-0-2-2---2-------/
    -3-3-----------3---------/
    
    ( se repite dos veces en la primera y 3° estrofa)
    
    esto va en la segunda estrofa
    -0---------------------------/
    ---4-2-0---------------------/
    ---------3-2-0---2-2-2---0-0-/
    ---------------3-------3-----/
    
    -0---------------------------/
    ---4-2-0---------------------/
    ---------3-2-0---2-2-2---0---/
    ---------------3-------3-----/
    esto va en la segunda y tercera estrofa (x2 claro)
    
    ya esta este tab no es completamente mio la primera
    parte la hizo sebastian Reyes pa' que voy a mentir
    el coro lo saco despues ok
  • +
    ¡Colabora con nosotros!
    Envíanos tu versión de esta canción

Letra de Dinosaurio anacleto
Soy un dinosaurio y me llamo Anacleto
por cosas del destino no morí en la glaciación
mis amigos se extinguieron me dejaron sólo
y tuve que resignarme a esta situación
me aburría mucho por que no tenía parientes
nadie conocido con quien salir a jugar
tuve que inventarme amigos para entretenerme
sentarme frente a un espejo para conversar
pero una mañana decidí cambiar mi suerte
y mandé un proyecto para la televisión
se trataba de un programa para la familia
con cantantes y concursos, mucha diversión
el gerente del canal me llamó a su oficina
le encantó el programa y me dijo 'hagámoslo'
firmamos contrato y después de un par de meses
yo me convertí en figura de televisión
conocí a las estrellas
de las portadas, u-hu-hu
sumergido en la fama
y en el placer, u-hu-hu
me compré autos caros
una casa en la playa
pero no fui feliz
pero no fui feliz...
no fui feliz
todavía extrañaba a mis amigos dinosaurios
y a los cavernícolas que nos querían cazar
por eso un buen dia me vine a vivir al campo
a cambiar la fama por amigos de verdad...




[Dinosaurio anacleto chords][Dinosaurio anacleto cifra]
© LaCuerda.net · aviso legal · privacidad · es · en · pt · contacto