Letra y Acordes de 31 minutos: Dinosaurio anacleto
Conexión · Inscripción
Letras y Acordes
Pantalla Completa
Imprimir
Versión Texto
Añadir Favorito
Otras Versiones

Mostrar Diagramas
Desfile Automático
Manipular Acordes
Formato del Texto


Dinosaurio anacleto

31 minutos

calidad:
3min0192
AUTOR: Raulito
ALBUM: desconocido (2004)
Enviado por Razkita
31 minutos

El Dinosaurio Anacleto

Riff 1
-----------------------------------------------------
---3-----3------3-----3------3-----3------3-----3----
------0-----0------0-----0------0-----0------0-----0-
-----------------------------------------------------
---5------------3------------2------------0----------
-----------------------------------------------------

Riff 2
---3-----3------3-----3------3-----3------3-----3----
------3-----3------3-----3------3-----3------3-----3-
-----------------------------------------------------
-----------------------------------------------------
---5------------3------------2------------0----------
-----------------------------------------------------


Riff 1

RE DO SI LA Soy un dinosaurio y me llamo Anacleto
RE DO SI LA por cosas del destino no morí en la glaciación
RE DO SI LA mis amigos se extinguieron me dejaron sólo
RE DO SI LA y tuve que resignarme a esta situación Riff 2
RE DO SI LA me aburría mucho por que no tenía parientes
RE DO SI LA nadie conocido con quien salir a jugar
RE DO SI LA tuve que inventarme amigos para entretenerme
RE DO SI LA sentarme frente a un espejo para conversar
SOL DO SI LA pero una mañana decidí cambiar mi suerte
SOL DO SI LA y mandé un proyecto para la televisión
SOL DO SI LA se trataba de un programa para la familia
SOL DO SI LA con cantantes y concursos, mucha diversión
SOL DO SI LA el gerente del canal me llamó a su oficina
SOL DO SI LA le encantó el programa y me dijo'hagámoslo'
SOL DO SI LA firmamos contrato y después de un par de meses
SOL DO SI LA yo me convertí en figura de televisión
RE DO conocí a las estrellas
SOL de las portadas, u-hu-hu
RE DO sumergido en la fama
SOL y en el placer, u-hu-hu
RE DO me compré autos caros
SOL una casa en la playa
DO pero no fui feliz
DO pero no fui feliz... no fui feliz Riff 1 o las siguintes notas...
RE DO SI LA todavía extrañaba a mis amigos dinosaurios
RE DO SI LA y a los cavernícolas que nos querían cazar
RE DO SI LA por eso un buen dia me vine a vivir al campo
RE DO SI LA SOL a cambiar la fama por amigos de verdad... Cualquier cosa mala.. no duden en corregirla..
Este fichero es trabajo propio de su transcriptor y representa su interpretación personal de la canción. El material contenido en esta página es
para exclusivo uso privado, por lo que se prohibe su reproducción o retransmisión, así como su uso para fines comerciales.

© LaCuerda.net · Aviso Legal · Privacidad