Acordes de Guitarra » Z »Zurdok Movimiento » Nuevo Sueño (Tab)

Nuevo Sueño
Zurdok Movimiento

  • Tablatura
    Zurdok Movimento
    Antena:
    "Nuevo sueño"
    Tabulada por KomKalabaza
    -------------------------
    
    coro
    
     "todo seria normal.."
    e--------------------
    b--------------------
    g--------------------
    D--------------------
    A-----5~--3-2-3------
    E-2-0----------------
     
    
    ----------------
    Correcciones, comentarios, saludos, recetas, etc. 
    Envialas a: mriscariot@hotmail.com
    Visita mi pagina de Zurdok en:
    
    www.geocities.com/SunsetStrip/Mezzanine/7131/
    
    Si alguien sabe el email de zurdok mandenmelo.
  • Tablatura
    Muy importante: Afinaci¢n de guitarra Dropped D
    Esto significa que la cuerda #6 esta afinada en Re
    
    
    
    Introduccion
    e-------------------------------------------------------------
    b-------------------------------------------------------------
    g-------------------------------------------------------------
    d---------------------3---------------------------------------
    A------------------------5-----------------------5-4-3--------
    D---3b-0--0-3p-0-3p-0----------3b-0-0-3p-0-3p-0--------5-4-3--
    
    
    Fil 1 con verso " Desplegandome un poco..."
    1 era guitarra
    e---------------------------------------------------------
    b---------------------------------------------------------
    g---------------------------------------------------------
    d---------------------------------------------------------
    A--3p5------------------------3p5-------------------------
    D-------5-4-3--0-3b-0-3-3b-0-------5-4-3-0-3b-0-3-3b-0----
    
    2da guitarra con WAH
    
    e------------------------------------------
  • +
    ¡Colabora con nosotros!
    Envíanos tu versión de esta canción





© LaCuerda.net · aviso legal · privacidad · contacto