Acordes de Guitarra » Z »Zurdok Movimiento » Nadie te quiere ver (Tab)

Nadie te quiere ver
Zurdok Movimiento

Letras, Acordes y Tabs para Guitarra, Bajo y Ukulele

  •      A?
    e--5---------
    B--5---------
    G--5---------
    D--6---------
    A--7---------
    e--5---------
    
    Verso
    Am       A?            F
        nadie esta escuchando  [aaaaah]
    
               C   E
    mejor no hablar.
    
    Am      A?            F
      Todos van contentos, (aaaaah)
    
              C   E
    y tu a llorar.
    
  •     A A/Ab   F    C      E7
    e-------------------------------------------
    b-------------------------------------------
    g-------------------5---7--7----------------
    d--7-7-7-7---3-3--2-5-/-6--6----------------
    A--7-7-7-7---3-3--3-3-/-7--7----------------
    D--7-7-6-6---3-3----------------------------
    
     Ya lo vez te lo dijo...
         A       F       G#       D#
    e------------------------------------------------
    b------------------------------------------------
    g--------------------8--8--8---------------------
    d---7--7--10-10-10--10-10-10--8-10-11-10---------
    A---7--7---8--8--8--11-11-11--6-6--6--6----------
    D---7--7-----------------------------------------
    
    Continua
        G#       G  F#  F      G G# A#
    e----------------------------------------------
    
  • ****AFINADA EN dropped D****
    
    Se repite todo tres veces.
    
     1.- Nadie esta escuchando, mejor no hablar
     2.- Todos van contentos, y tu a llorar
    
    x2
    e-----------------------------------------------------||
    B------------------------------------------2-2-2-2----||
    G---------------------------------5-5-5-5--2-2-2-2----||
    D--7-7--7-7-7--7/3-3-3-3-3-3-3-3--5-5-5-5--2-2-2-2----||
    A--7-7--7-7-7--7/3-3-3-3-3-3-3-3--3-3-3-3--4-4-4-4----||
    D--7-7--7-6-6--6/3-3-3-3-3-3-3-3----------------------||
    
     Ya lo se, solo puedes caminar
    
    e---------------------------------------
    B---------------------------------------
    G---------------------------------------
    D-5-5-5-5--3-3-3-3--6-6-6-6-6-6-6-6-----
    A-5-5-5-5--3-3-3-3--6-6-6-6-6-6-6-6-----
    D-5-5-5-5--3-3-3-3--6-6-6-6-6-6-6-6-----
    
    
       No puedes volar, y nunca lo haras, no no no no no
    
    e------------------------------------------------------------------
    B------------------------------------------------------------------
    G-----------
  • +
    ¡Colabora con nosotros!
    Envíanos tu versión de esta canción

Letra de Nadie te quiere ver
Verso
nadie esta escuchando [aaaaah]
mejor no hablar.
Todos van contentos, (aaaaah)
y tu a llorar.
Pre-coro
Ya lo se solo puedes caminar
no puedes volar
y nunca lo haras
no no no no no
Nadie te quiere ver,
nadie te quiere ver.
nadie te quiere ver,
nadie te quiere ver.
Se repiten los mismos acordes en los
siguientes versos, pre-coros y coros.




[Nadie te quiere ver chords][Nadie te quiere ver cifra]
© LaCuerda.net · aviso legal · privacidad · es · en · pt · contacto
DINAMICO