Acordes de Guitarra » Z »Zurdok Movimiento » Mamá, y con quién duermes hoy? (Tab)

Mamá, y con quién duermes hoy?
Zurdok Movimiento

  • Tablatura
    -------------------------
    
    solo de guitarra cerca del final de la cancion
    
    e----------------------------
    b-5-5--3-3------------3-3-3--
    g-----------3-0-3-0-3--------
    D----------------------------
    A----------------------------
    E----------------------------
    
    e----------------------------------------
    b----------------------------------------
    g----------------------------------------
    D---0-2-0-2-0-0-------------4-4-4-4--9---
    A--2--------------2-0-2-0-2--------------
    E----------------------------------------
    E----------------------------------------
    
    
    
  • Tablatura
       E A D G B E
    C  0 3 2 0 1 0
    F  1 3 3 2 1 1
    D# 6 6 8 8 8 6
    C* 3 3 5 5 5 3
    F* 8 8 D D D 8  D=10
    
    Nota:Cuando toques el C, solo toca las cuerdas de E,A y D, lo mismo con F.
    Cuando toques D#, solo toca las cuerdas de A, D y G, segun el ritmo de la rola.
    
     C
    Cuando vas a llegar,
       F
    temprano de trabajar,
       D#
    temprnao de trabajar,
             F           C    F-D# (cambio rapido segun el ritmo d ela cancion)
    estoy cansado de esperar
    
     C
    
  • Piano (Teclados)
    Zurdok Movimento
    Antena:
    "Mamá, y con quien duermes hoy"
    Tabulada por KomKalabaza
    -------------------------
    Esto es un rellenillo que meten por la mitad 
    de la canción, despues que acaban los versos.
    
    _________________________________________
                        A   
      G        G                 G
                      F   F       
     E  E    E   E  
                               Eb   Eb
    
    C      C        C        C
    __________________________________________
    
    
    ----------------
    Para los que no sepan las notas con letras, 
    aki estan las equivalencias.
    
    C=DO
    D=RE
    E=MI
    F=FA
    G=SOL
    A=LA
    B=SI
    ----------------
    Correcciones, comentarios, saludos, recetas, etc. 
    Envialas a: mriscariot@hotmail.com
    Visita mi pagina de Zurdok en:
    www.geocities.com/SunsetStrip/Mezzanine/7131/
    
    Si alguien sabe el email de zurdok mandenmelo.
  • +
    ¡Colabora con nosotros!
    Envíanos tu versión de esta canción

Letra de Mamá, y con quién duermes hoy?
final
Correcciones, comentarios, saludos, recetas, etc.
Envialas a: mriscariot@hotmail.com
Visita mi pagina de Zurdok en:
www.geocities.com/SunsetStrip/Mezzanine/7131/
Si alguien sabe el email de zurdok mandenmelo.



© LaCuerda.net · aviso legal · privacidad · contacto