Acordes de Guitarra » Z »Zoe » Veneno (Tab)

Veneno
Zoe

Letras, Acordes y Tabs para Guitarra, Bajo y Ukulele

  •     A4   A9    Am   Am7    Am7   Am*  Em   Em7    Em7   Em*
    e|--0-----0-----0-----0-----0-----0--|----------------------------|
    B|--3-----0-----1-----1-----1-----1--|--0-----0-----0-----0-------|
    G|--2-----2-----2-----1-----0-----2--|--0-----0-----0-----0-------|
    D|--2-----2-----2-----2-----2-----4--|--2-----1-----0-----2-------|
    A|--0-----0-----0-----0-----0-----0--|--2-----2-----2-----4-------|
    E|-----------------------------------|--0-----0-----0-----0-------|
    
    Intro: A4  A9  A4  A9 Em Em7  Em7 Em*
    
          Am      Am7              Am7           Am*          Em
    Sobre ti, sobre mí, o de estrellas que se funden, si eres tú,
              Em7       Em7      Em*
    si es el sol o la luna.
    Si es temor, si es rencor, o la falsa indiferencia de una mancha de lluvia
    en tu memoria.
    
    Amanece otra vez y las horas se hacen tibias, se desangran las sombras
    perfumadas. Una araña gigante dando vueltas por el aire, una bola de
    niebla contraataca.
    
  • Bm F#m (X2)
          Bm
    SOBRE TI, SOBRE MI,
    
    O DE ESTRELLAS QUE SE FUNDEN,
            F#m
    SI ERES TÚ, SI ES EL SOL O ES LA LUNA.
             Bm
    SI ES TEMOR, SI ES RENCOR,
    
    O LA FALSA INDIFERENCIA
            F#m
    DE UNA MANCHA DE LLUVIA EN TU MEMORIA.
    
    Coro:
    
                 G
    HABLEMOS DE LUCES,
        Am        Bm
    HABLEMOS DE NADA,
    
  •     A4   A9    Am   Am7    Am7   Am*  Em   Em7    Em7   Em*
    e|--0-----0-----0-----0-----0-----0--|----------------------------|
    B|--4-----0-----1-----1-----1-----1--|--0-----0-----0-----0-------|
    G|--2-----2-----2-----1-----0-----2--|--0-----0-----0-----0-------|
    D|--2-----2-----2-----2-----2-----4--|--2-----1-----0-----2-------|
    A|--0-----0-----0-----0-----0-----0--|--2-----2-----2-----4-------|
    E|-----------------------------------|--0-----0-----0-----0-------|
    
    *Estos acordes son, por lo que veo, unos que me inventé
    yo por necesidad...no son clasificables, la verdad, pero
    hacen bien su función en la sucesión de notas.
    
    Veneno, de Zoe
    
    [Intro:
    A4  A9  A4  A9
    Em Em7M Em7 Em*]
    
    Versos:
          Am      Am7              Am7           Am*
    
  • Intro
    H |x-x-x-x-x-x-x-x-|x-x-x-x-x-x-x-x-|x-x-x-x-x-x-x-x-|x-x-x-x-x-x-x-X-|
    S |----o-------o---|----o-------o---|----o-------o---|----o-------o---| x2
    B |o-------o-o-----|o-------o-o-----|o-------o-o-----|o-------o-o-----|
      (1 + 2 + 3 + 4 + |1 + 2 + 3 + 4 + |1 + 2 + 3 + 4 + |1 + 2 + 3 + 4 + |
    
    verso 1
    H |x-x-x-x-x-x-x-x-|x-x-x-x-x-x-x-x-|x-x-x-x-x-x-x-x-|x-x-x-x-x-x-x-X-|
    S |----o-------o---|----o-------o---|----o-------o---|----o-------o---| x4
    B |o-------o-o-----|o-------o-o-----|o-------o-o-----|o-------o-o-----|
      (1 + 2 + 3 + 4 + |1 + 2 + 3 + 4 + |1 + 2 + 3 + 4 + |1 + 2 + 3 + 4 + |
    
    repetir intro--------
    
    verso 2
    H |x-x-x-x-x-x-x-x-|x-x-x-x-x-x-x-x-|x-x-x-x-x-x-x-x-|x-x-x-x-x-x-x-X-|
    S |----o-------o---|----o-------o---|----o-------o---|----o-------o---| x3
    B |o-------o-o-----|o-------o-o-----|o-------o-o-----|o-------o-o-----|
      (1 + 2 + 3 + 4 + |1 + 2 + 3 + 4 + |1 + 2 + 3 + 4 + |1 + 2 + 3 + 4 + |
    
    H |x-x-x-x-x-x-x-x-|x-x-x-x-x-x-x-x-|x-x-x-x-x-x-x-x-|x-x-x-x-X---x---|
    S |----
  • +
    ¡Colabora con nosotros!
    Envíanos tu versión de esta canción
  • Tutorial
    HD
    Como tocar veneno de zoe en guitarra (HD)
    Tutorial
    3:30
  • Tutorial
    HD
    Zoé - Veneno - Acordes guitarra - Como tocar
    7:23
  • Tutorial
    Como tocar Veneno zoe guitarra unplugged tutorial cover
    3:01

Letra de Veneno
Sobre ti, sobre mí, o de estrellas que se funden, si eres tú,
si es el sol o la luna.
Si es temor, si es rencor, o la falsa indiferencia de una mancha de lluvia
en tu memoria.
Amanece otra vez y las horas se hacen tibias, se desangran las sombras
perfumadas. Una araña gigante dando vueltas por el aire, una bola de
niebla contraataca.
Hablemos de luces, hablemos de nada, hablemos de cosas de verdad, de lo
mortal. A veces tan triste y a veces tan libre, veneno la confusión,
veneno yo
1er verso más 2 coros




[Veneno chords][Veneno cifra]
© LaCuerda.net · aviso legal · privacidad · es · en · pt · contacto