Acordes de Guitarra » Z »Zoe » Miel (Tab)

Miel
Zoe

Letras, Acordes y Tabs para Guitarra, Bajo y Ukulele

  •     Bm              A#     Bm                 E
    
    Versos: llevan la figura del intro toda la canción
    
    Bm                      A#
     No se me duele comprender
            Bm            E
     cómo fue que terminamos
    Bm                      A#
     La risa se quedo detrás
             Bm                E
     llena de polvo y lágrimas rojas
           Bm                   A#
     Bésame con tus ojos de miel
           Bm
     que me hablan de un mundo
         E
     que ya no conozco
    
    coro
    
  • Bm                      F#
     No se me duele comprender
            D            E
     cómo fue que terminamos
    Bm                      F#
     La risa se quedo detrás
              D                E
     llena de polvo y lágrimas rojas
           Bm                   F#
     Bésame con tus ojos de miel
           D 
     que me hablan de un mundo
         E       
     que ya no conozco
    
    
    Bm            F#
     Háblame de tí
    D            E
     No me dejes sólo
    
  • Bm                      F#
     No se me duele comprender
            G            R
     cómo fue que terminamos
    Bm                      F#
     La risa se quedo detrás
              G               R
     llena de polvo y lágrimas rojas
           Bm                   F#
     Bésame con tus ojos de miel
           G
     que me hablan de un mundo
         R
     que ya no conozco
    
    
    Bm            F#
     Háblame de tí
    G          R
     No me dejes sólo
    
  • e-----2------1---------2-------0-----
    B-----3------3---------3-------0-----
    G-----4------3---------2-------1-----
    D-----4------3---------0-------2-----
    A-----2------1---------x-------2-----
    E-----2------1---------x-------0-----
         Bm      SIb       D       E
    Van en este orden, solo hay que fijarse en el rasgueo
    
        Bm            SIb       Bm            E
    e-----------------------------------------------------------------
    B-----------------------------------------------------------------
    G-----------------------------------------------------------------
    D-------0---2-0-----------------0---2-0---------------------------
    A---2-2---2-----2-1----(0)*-2-2---2-----2-------------------------
    E-----------------------------------------0-----------------------
    X2
        Bm            SIb                D            E
    e-----------------------------------------------------------------
    B-----------------------------------------------------------------
    
  • Ke onda banda amm pues aki esta la parte del intro de esta buena rola,
    esta en el tono de la transcripcion mejor kalificada de aki, asi ke
    esta hecha para tokarse con ella jeje
    
    esta parte la da el bajo pero se oye bien si la toca uno solo con
    guitarra:
    
    e---------------------------------------
    B---------------------------------------
    G---------------------------------------
    D---------2-0----------------2-0-2-4----
    A-2-2-5-2-----2-1----2-2-5-2------------
    E---------------------------------------
    
    se da 2 veces y luego se pasa a esta parte, esto si lo da la guitarra:
    
    e-------------5---1/2----7-0--1/2--
    B---------3-----3------------------
    G-3/4-4-4---4---------4------------
    D----------------------------------
    A----------------------------------
    E----------------------------------
    
    esto tambien se da 2 veces y se comienza la rola
    
    a la mitad de la cancion se vuelve a tocar esto exactamente igual
    
    UN AGRADECIMIENTO A "OSKR"
     POR SU TRANSCRIPCION YA KE ME BASE DE ELLAS PARA SAKAR ESTO
    SALU
  • Intro:
    
    1|----------------------|
    2|--------0---2-0-------|
    3|---2-2---2------2-1^--|
    4|----------------------|
    
    1|----------------------|
    2|--------0---2-0-------|
    3|---2-2---2------2-0^--|
    4|----------------------| (Repeat 4)
    
    Verse:
    
    1|----------------------------------------|
    2|--------0---2-0----------0----2-0-------|
    3|---2-2---2------2-1----1---1------2-1---|
    4|----------------------------------------|
    
    
    1|-------------------------------------|
    2|--------0---2-0---2~-----------------|
    3|---2-2---2------2--------------------|
    4|-------------------------------------|
    
    
    1|----------------------------------------|
    2|--------0---2-0----------0----2-0-------|
    3|---2-2---2------2-1----1---1------2-1---|
    4|----------------------------------------|
    
    
    1|-------------------------------------|
    2|--------0---2-0--2~------------------|
    3|---2-2---2------2-----2-0-2----------|
    4|-------------------------------------|
    
    1|----------------------------------------|
    2|--------0---2-0----------0----
  • +
    ¡Colabora con nosotros!
    Envíanos tu versión de esta canción

Letra de Miel
Versos: llevan la figura del intro toda la canción
No se me duele comprender
cómo fue que terminamos
La risa se quedo detrás
llena de polvo y lágrimas rojas
Bésame con tus ojos de miel
que me hablan de un mundo
que ya no conozco
Háblame de tí
No me dejes sólo
Quiero descubrir
Por qué le tengo tanto miedo al amor
Perdí la ruta del delfín
soñé que estaba muerto
Más tarde pude revivir
estaba sólo en un barco de fuego
Bésame con tus ojos de miel
que me hablan de un mundo
que ya no conozco
Háblame de tí
No me dejes sólo
Quiero descubrir
Por qué le tengo tanto miedo al amor
Puedes hablarme de tí
para que ya no me sienta sólo
Puedes hablarme de tí
Por qué le tengo tanto miedo al amor,
miedo al amor, miedo a la muerte, a la libertad
miedo al amor, miedo a la muerte, a la libertad
esta la verdadera transcripción 1000% correcta disfrútenla .




[Miel chords][Miel cifra]
© LaCuerda.net · aviso legal · privacidad · es · en · pt · contacto