Acordes de Guitarra » Z »Zoe » Frío (Tab)

Frío
Zoe

Letras, Acordes y Tabs para Guitarra, Bajo y Ukulele

  •   Dm               G
    ALIENTO DE BÉLICO ACENTO
       Dm                G 
    DEMONIOS DE UNA POLUCIÓN
      Dm                G
    SIRENA COLGADA DEL CIELO
       Dm               G 
    REVOLVER PORNOGRÁFICO. 
    
    A#                   C                    Dm
    SUPERHIPNOTIZADORES PÁJAROS INVERTEBRADOS SON
    A#                   D# 
    NOTICIERO DIFERIDO, TRANSMISIONES INVERTIDAS. 
    
      F Am   D#      Dm    F             Am         
    FRÍO,  FRIO CUANDO TUS OJOS CREEN QUE DEBO SER
      A#                          A 
    COMO TU CREES QUE ES MEJOR VIVIR Y SER.
    
    
    
  • Intro: Dm F G F G Dm F G F G Dm x2 (un solo rasgueo)
    
      Dm            F  G     F G
    ALIENTO DE BÉLICO ACENTO
       Dm           F    G
    DEMONIOS DE UNA POLUCIÓN
      Dm            F    G  F G
    SIRENA COLGADA DEL CIELO
       Dm           F    G
    REVOLVER PORNOGRÁFICO.
    
    F G Dm F G F G Dm F G
    
    (Aqui cambien el rasgueo)
    
    A#                   C                    Dm
    SUPERHIPNOTIZADORES PÁJAROS INVERTEBRADOS SON
    A#                   C#
    NOTICIERO DIFERIDO, TRANSMISIONES INVERTIDAS.
    
    
  • Frio
    Zoe
    
    Esta muy sencillo el tab solo hay que agarrarle  el ritmo aquí esta :
    
    intro
    
    g------------------------------------------
    d------------------------------------------   (x2)
    a----5---8-10----8-10---5---8-10----8-10---
    e------------------------------------------
    verso 1
    ALIENTO de…….
    
    g----------------------------------
    d----------------------------------
    a----5---8-10---8-10---5---8-10----
    e----------------------------------
    sirena con……
    
    g--------------------------------------
    d--------------------------------------   (x2)
    a----5---8-10---8-10---5---8-10---8-10-
    e--------------------------------------
    
    de pues no se toca la parte de
    SUPERHIPNOTIZADORES PÁJAROS..
    entra el bajo hasta un poco antes del coro  haci
    
    
    TRANSMISIONES INVERTIDAS
    g---------------------
    d---------------------
    a----6-6-6-6-6--------
    e---------------------
    
    coro
    
    frio
    g-------------------------------------------------------------------
    d---------------------------------------------------------------
  • +
    ¡Colabora con nosotros!
    Envíanos tu versión de esta canción

Letra de Frío
ALIENTO DE BÉLICO ACENTO
DEMONIOS DE UNA POLUCIÓN
SIRENA COLGADA DEL CIELO
REVOLVER PORNOGRÁFICO.
SUPERHIPNOTIZADORES PÁJAROS INVERTEBRADOS SON
NOTICIERO DIFERIDO, TRANSMISIONES INVERTIDAS.
FRÍO, FRIO CUANDO TUS OJOS CREEN QUE DEBO SER
COMO TU CREES QUE ES MEJOR VIVIR Y SER.
ALIENTO..............
FRÍO, FRÍO CUANDO ME HABLAS,
FRÍO CUANDO TUS OJOS CREEN QUE DEBO SER
COMO TU CREES QUE ES MEJOR VIVIR Y SER.




[Frío chords][Frío cifra]
© LaCuerda.net · aviso legal · privacidad · es · en · pt · contacto