Acordes de Guitarra » Z »Zoe » Camara Lenta (Tab)

Camara Lenta
Zoe

Letras, Acordes y Tabs para Guitarra, Bajo y Ukulele

  • Dm      G
    C       F
    VERSO 1
    Dm          G  C           F
    Y te encontré, y te encontré
    suspirando en un bar de Bogotá
    Y me acerqué, sigiloso
    en cámara lenta y sin respiración
    Y te mire, y tú me miraste
    Dm       G           F  C
    bienvenido sea el amor
    
    VERSO 2
    Em         Am
    Sigiloso y sensual
    F                   Em           Am
    me iluminas con tus ojos de ultramar
    
    Silencioso y lunar
    rayas el firmamento y te vas
    
  • Dm - G - C - F x 2
    
    
    Dm         G   C         F
    Y te encontré  Y te encontré
    Dm         G   C          F
    Suspirando en  un bar de Bogotá
    Dm        G   C      F
    y me acerqué   Sigiloso
    Dm          G   C           F
    En cámara lenta Y sin respiración
    Dm      G    C      F
    Y te miré y tu me miraste
    Dm     G    C         F
    Bienvenido sea el amor
    
    Em          Am
    Sigiloso y sensual
    F                  Em              Am
    Me iluminas con tus ojos de ultramar
    
  • Intro
    
    G|-----------------------------------
    D|-----------------------------------
    A|-------------33333--888-88---------
    E|10(x5)/33333-----------------------
    
    - Repetir 2 veces
    
    Verso 1
    G|-----------------------------------
    D|-----------------------------------
    A|-------------33333--888-88---------
    E|10(x5)/33333-----------------------
                       Repetir 5 veces
    
    G|-----------------------------------
    D|-----------------------------------
    A|-------------88888-333-33----------
    E|10(x5)/33333-----------------------
    
    Verso 2
    G|--------------------------------------
    D|--------------------------------------
    A|7777777----------8888888-77777--------
    E---------55555555--------------55555555
    
    Repetir 2 veces
    
    Volver a tocar el Intro 4 veces
    
    Volver a tocar el Verso 1
    Verso 1
    G|-----------------------------------
    D|-----------------------------------
    A|-------------33333--888-88---------
    E|10(x5)/33333-----------------------
    
    G|-----------------------------------
    D|----------------------
  • +
    ¡Colabora con nosotros!
    Envíanos tu versión de esta canción
  • Tutorial
    HD
    Como tocar camara lenta de ZOE en guitarra acustica
    4:16

Letra de Camara Lenta
VERSO 1
Y te encontré, y te encontré
suspirando en un bar de Bogotá
Y me acerqué, sigiloso
en cámara lenta y sin respiración
Y te mire, y tú me miraste
bienvenido sea el amor
VERSO 2
Sigiloso y sensual
me iluminas con tus ojos de ultramar
Silencioso y lunar
rayas el firmamento y te vas
VERSO 1
Y te encontré, y te encontré
suspirando en un bar de Bogotá
y te mire, y tú me miraste
bienvenido sea el amor
VERSO 2
Sigiloso y fugaz
me hipnotizas con tus ojos de cristal
silencioso y lunar
rayas el firmamento y te vas
Sigiloso y fugaz
me hipnotizas con tus ojos de obsidiana
silencioso y lunar
rayas el firmamento y te vas




[Camara Lenta chords][Camara Lenta cifra]
© LaCuerda.net · aviso legal · privacidad · es · en · pt · contacto