Acordes de Guitarra » Z »Zoe » Asteroide (Tab)

Asteroide
Zoe

  • Letra y Acordes
    Intro: G-F#-F
    
    
    G      F#  F
    Déjate ver,
            G      F#     F
    Estuvo chido poder besar,
               G       F#  F
    Tu stereo-cuerpo lunar,
               G       F#      F
    Tus ojos brillan mas cada vez.
    
    
    ---:_ CORO _:---
    
       A#
    Y viajas sobre una asteroide,
        D           G#
    Clavando tus espinas contra el órbite,
              G
    
  • Letra y Acordes
    Intro: G-F#-F
    
    G      F#  F
    Déjate ver,
            G      F#     F
    Estuvo chido poder besar,
               G       F#  F
    Tu stereo-cuerpo lunar,
               G       F#      F
    Tus ojos brillan mas cada vez.
    
    
    CORO
    
       A#
    Y viajas sobre una asteroide,
        Dm           G#
    Clavando tus espinas contra el órbite,
              G
    De un planeta alado.
    
  • Tablatura
       G   F#  F           G  F#  F
    e|-------------------------------------------|
    B|-------------------------------------------|
    G|-4-4-3-3-2-------0---4-4-3-3-2-------------|
    D|-----------0-2-3---------------------------| X2
    A|-------------------------------------------|
    E|-------------------------------0-0-0-1-3-1-|
    
    Déjate ver
    estuvo chido poder besar
    tu stereo-cuerpo lunar
             G       F#        F
    tus ojos brillan mas cada vez.
    
      A#
    Y viajas sobre una asteroide
        Dm
    clavando tus…
    G#
    espinas contra el órbite
    
  • Tab p/Bajo
    ZOE
    Asteroide
    
    INTRO: 2 tiempos de la lira y entra el bajo junto con la pila
    
    X8
    G|---------------------------------
    D|---------------------------------
    A|---------------------------------
    E|--3-3-3-0-2-2-0-1-0-1-1-0-1-1-0--
    
    X2
    G|------------------------------------------------------------------
    D|------------------------------------------------------------------
    A|--111111111111111/555555555555555---------------------------------
    E|---------------------------------444444444444444-333333333333333--
    
    X12
    G|---------------------------------
    D|---------------------------------
    A|---------------------------------
    E|--3-3-3-0-2-2-0-1-0-1-1-0-1-1-0--
    
    X2
    G|------------------------------------------------------------------
    D|------------------------------------------------------------------
    A|--111111111111111/555555555555555---------------------------------
    E|---------------------------------444444444444444-333333333333333--
    
    X2
    G|------------------------------
  • Batería
    tu stereo-cuerpo lunar  ah     tus ojos brillan más que otra vez<<<
    HH x-x-x-x-x-x-x-x-|x-x-x-x-x-x-x-x-|x-x-x-x-x-x-x-x-|x-x-x-x-x-x-x---|
    SD ----o-------o---|----o-------o---|----o-------o---|----o-------o---|
    BD o-o-----o-o-----|o-o-----o-o-----|o-o-----o-o-----|o-o-----o-o-----|
    
    Y viajas sobre un asteroide    clavando    t u s
    C2 x---------x-----|----------x-----|----------x-----|----------x-x-x-|
    C1 --x-x-x-x---x---|x-x-x-x-x---x---|x-x-x-x-x---x---|x-x-x-x-x-------|
    SD ----o--o--o--ooo|----o--o--o--ooo|----o--o--o--ooo|----o--o--o-o-o-|
    BD o-------o-------|o-o-----o-------|o-o-----o-------|o-o-----o-------|
    
    espinas contra el orbital      de un planeta alado
    C2 ----x-------x---|----x-------x---|----x-------x---|----x-----------|
    C1 x-x---x-x-x---x-|x-x---x-x-x---x-|x-x---x-x-x---x-|x-x---x-x-x-x---|
    SD ----o--o----o---|----o--o----o---|----o--o----o---|----o--o--o--ooo|
    BD o-o-----o-o-----|o-o-----o-o-----|o-o-----o-o-----|o-o-----o-------|
    
    Y viajas sobre un asteroide    esperame       
    C2 x---------x-----|----------x-----|----------x-----|----------x-x-x-|
    C1 --x-x-x-x---x---|x-x-x-x-x---x---|x-x-x-x-x---x---|x-x-x-x-x-------|
    
  • +
    ¡Colabora con nosotros!
    Envíanos tu versión de esta canción

Letra de Asteroide
Déjate ver,
Estuvo chido poder besar,
Tu stereo-cuerpo lunar,
Tus ojos brillan mas cada vez.
Y viajas sobre una asteroide,
Clavando tus espinas contra el órbite,
De un planeta alado.
Y viajas sobre un asteroide,
Espérame,
Que quiero borrar mi rastrOOOOO
Asteroide....X4
.VERSO.
Quiero volver,
Estuvo chido hacer el amor,
En el asiento de atrás,
Alucinando mas cada vez.
Y viajas sobre una asteroide,
Clavando tus espinas contra el órbite,
De un planeta alado.
Y viajas sobre un asteroide,
Espérame,
Pensé en decirte tantoOOOO
Pense en decirte tanto
Pero no pude articular,
La nave se destroza lentamente.
Asteroide....X6...
Eso es todo
escuchen la rola x)
kualkier duda a
darkhorus_a@hotmail.com
sacroyal!



© LaCuerda.net · aviso legal · privacidad · contacto