Acordes de Guitarra » W »William Luna » Linda Wawita (Tab)

Linda Wawita
William Luna

Letras, Acordes y Tabs para Guitarra, Bajo y Ukulele

  • D-D-D-D-D#-F...A#-A-F-G...
                                X2
    C-C-C-C-D-D#...A-G-A-F...
    
    G-F-D#-D-C...F-D-D#-F...
    G-F-D#-D-C...D-D#-F-G-A#..
    
    ESTROFA
    A#
    Al recorrer tu carita bonita
    Cm                                   F
    cierro los ojos y sueño que estas conmigo,
            A#
    linda wawita...
    
    A#
    Cuando alumbra las estrellas de noche
    Cm
    y recuerdo tu sonrisa de niña
    F
    
  • A#
    Al recorrer tu carita bonita
    Cm                                   F
    cierro los ojos y sueño que estas conmigo,
            A#
    linda wawita...
    
    A#
    Cuando alumbra las estrellas de noche
    Cm
    y recuerdo tu sonrisa de niña
    F
    sólo suspiro por tí
            A#
    linda wawita
    
    CORO
        Cm             F
    No sé si me recordarás
    A#
    
  • E--7-7-7-7-8-10-15-14-10-12-12-12-10-10-8----------|
    B---------------------------13-13-12-12-10---------|
    G--------------------------------------------------|
    D--------------------------------------------------|
    A--------------------------------------------------|
    E--------------------------------------------------|
    
    E-------------7-8-14-12-14-10-10-10-8--8--7---------|
    B-10-10-10-10-----------------12-12-10-10-8---------
    G---------------------------------------------------|
    D---------------------------------------------------|
    A---------------------------------------------------|
    E---------------------------------------------------|
    las dos de arriba se repite dos veces
    
    E-12-10-8-7----10-8-7-8-10---12-10-8-7----10----10--------|
    B-----------10-------------------------10----10----8p10-8-|
    G---------------------------------------------------------|
    D---------------------------------------------------------|
    A---------------------------------------------------------|
    
  • e --------------------------------------------------
    B ---------------------11-10----8-------------------
    G ------7-7--7-7-8-10--------10---------------------
    D --------------------------------------------------
    A --------------------------------------------------
    E --------------------------------------------------
    
    e --------------------------------------------------
    B --------------------10-8-10-----------------------
    G ------5-5--5-5-7-8----------10--------------------
    D --------------------------------------------------
    A --------------------------------------------------
    E --------------------------------------------------
    
    Riff 2
    
    e ---------------------8----8-----------------------
    B ------11-10----8-------10-------------------------
    G ------------10--------------10--------------------
    D --------------------------------------------------
    
  • +
    ¡Colabora con nosotros!
    Envíanos tu versión de esta canción
  • Tutorial
    Linda Wawita-Tutorial Guitarra
    2:05

Letra de Linda Wawita
X2
ESTROFA
Al recorrer tu carita bonita
cierro los ojos y sueño que estas conmigo,
linda wawita...
Cuando alumbra las estrellas de noche
y recuerdo tu sonrisa de niña
sólo suspiro por tí
linda wawita
No sé si me recordarás
o por donde estarás
Sólo sé que siempre serás
linda wawita(bis)
Dudas, críticas o puteadas a mi correo arturo_markk@hotmail.com




[Linda Wawita chords][Linda Wawita cifra]
© LaCuerda.net · aviso legal · privacidad · es · en · pt · contacto