Acordes de Guitarra » W »William Luna » Vienes y te vas (Tab)

Vienes y te vas
William Luna

Letras, Acordes y Tabs para Guitarra, Bajo y Ukulele

  • Introducción: RE SIm RE SIm SOL FA#m SOL LA
    
     RE                       SIm
    Hoy ya no quiero verme contigo,
     RE                       SIm
    no sabes cuánto sufro cariño
     SOL                        FA#m
    No sé si soy feliz lejos de tí,
     SOL                     LA
    o soy feliz estando contigo.
    
    RE                          SIm
    Un día me amas luego me olvidas,
    RE                          SIm
    un día me amas luego te olvidas,
    SOL                         FA#m
    no sé si soy feliz lejos de tí,
    SOL                       LA
    o soy feliz estando contigo.
    
    
  • C9 Am (2 veces)
    F E   (2 Veces)(bis)
    
    A yo no quiero verme contigo
    C9                      Am
    no sabes cuanto sufro cariño
    C9                      Am
    no se si soy feliz lejos de ti...
    F                        Em
    o soy feliz estando contigo
    F                       Em
    Un dia me amas luego me olvidas
    C9                        Am
    un dia me amas luego te olvidas
    C9                        Am
    no se si soy feliz lejos de ti...
    F                        Em
    o soy feliz estando contigo 
    F                      Em
    Coro:
    
  •    DO                             LAm
    1)-3/0------3/0------3/0---------------------------------
    2)-------3--------3-------3-3-3---------0---0-0/1--1-1-1-
    3)--------------------------------2---2---2--------------
    4)-----2--------2-------------------2--------------------
    5)-3--------3--------3----3-3-3---0----------------0-0-0-
    6)-------------------------------------------------------
       DO                             LAm
    1)-3/0------3/0------3/0---------------------------------
    2)-------3--------3-------3-3-3---------0---0-0/1--1-1-1-
    3)--------------------------------2---2---2--------------
    4)-----2--------2-------------------2--------------------
    5)-3--------3--------3----3-3-3---0----------------0-0-0-
    6)-------------------------------------------------------
       FA                    MIm
    1)------------------------0---------
    2)-------1-1--------1-1---0---------
    3)-----2----------2-------0---2--0--
    4)---3----------3---------2---------
    5)-3----------3-----------2---2--2--
    
  •    C                   Am
    e|--3/0---3/0---3/0-----------------------------|
    B|------3----3------3-3-3-------0---0/1-1-1-1---|
    G|------------------------2---2---2----2------2-|
    D|--------------------------2-------------------|
    A|--3--3--3--3-3----3-3-3-----------------------|
    E|----------------------------------------------|
    
    
      F                   C
    e|---------------------3/0---3/0---3/0----------|
    B|--1-1-1---1-1-1---0------3----3------3-3-3----|
    G|--2-2-2-2-2-2-2-2-0---------------------------|
    D|--------2-------2-----------------------------|
    A|---------------------3--3--3--3-3----3-3-3----|
    E|----------------------------------------------|
    
      Am                     F
    e|----------------------------------------------|
    B|-------0---0/1-1-1-1---1-1-1---1-1-1---0------|
    
  • +
    ¡Colabora con nosotros!
    Envíanos tu versión de esta canción

Letra de Vienes y te vas
Hoy ya no quiero verme contigo,
no sabes cuánto sufro cariño
No sé si soy feliz lejos de tí,
o soy feliz estando contigo.
Un día me amas luego me olvidas,
un día me amas luego te olvidas,
no sé si soy feliz lejos de tí,
o soy feliz estando contigo.
Por eso ...
Vienes, vienes y te vas,
vienes, vienes y te vas,
vienes, vienes y te vas,
vienes, vienes y te vas.




[Vienes y te vas chords][Vienes y te vas cifra]
© LaCuerda.net · aviso legal · privacidad · es · en · pt · contacto