Acordes de Guitarra » W »Warcry » El amor de una madre (Tab)

El amor de una madre
Warcry

  • Letra y Acordes
    INTRO: Em  C  Em  C  Am  C  Em  D
    
    Em       C                 Em         C
    Mirales... solo un ciego no puede ver.
                    Am           C         Em    D
    Las palabras de amor a traves de su mirada
    Em      C                Em      C
    el dolor atenaza el joven corazon.
                    Am         C         Em      D
    Ella le da su amor, pero eso no le basta...
    
    
    B             Em        D
    Y le pidio que acabara pronto
    C     Bm    C               Am     B
    con todo el dolor que su alma aguantaba.
    B              Em     D    C     Bm    C
    El decidio que la madre que una vez vida le dio,
                Am  B   Em C Em C D
    ahora se la quitara.
    
  • Letra y Acordes
    INTRO: LAm  FA  LAm  FA  REm  FA  LAm  SOL
    
    LAm      FA                 LAm         FA
    Mirales... solo un ciego no puede ver.
                    REm           FA         LAm    SOL
    Las palabras de amor a traves de su mirada
    LAm      FA                LAm      FA
    el dolor atenaza el joven corazon.
                    REm         FA         LAm      SOL
    Ella le da su amor, pero eso no le basta...
    
    
    MI             LAm        SOL
    Y le pidio que acabara pronto
    FA     MIm    FA               REm     MI
    con todo el dolor que su alma aguantaba.
    MI              LAm     SOl    FA     MIm    FA
    El decidio que la madre que una vez vida le dio,
                REm  MI   LAm
    ahora se la quitara.
    
  • Tablatura
     D#m            B            D#m            B
    ---------3------------1--------------3------------1--------
    -------1---1------------2----------1---1------------2------
    -------------1------1-----1--------------1------1-----1----
    -----3------------3--------------3------------3------------
    ---3------------4--------------3------------4--------------
    -1---------------------------1-----------------------------
    
     G#m            B            D#m            C#
    ---------1------------4------------1-3------------6--------
    -------2---2------------2--------------1--------4----------
    -----3-------3------1-----1------1-------1----0------------
    ---3--------------3------------3------------1--------------
    -1--------------4------------------------------------------
    -----------------------------1-----------------------------
    
    
    
    
    D#m             B            D#m            B
    
  • +
    ¡Colabora con nosotros!
    Envíanos tu versión de esta canción

Letra de El amor de una madre
Mirales... solo un ciego no puede ver.
Las palabras de amor a traves de su mirada
el dolor atenaza el joven corazon.
Ella le da su amor, pero eso no le basta...
Y le pidio que acabara pronto
con todo el dolor que su alma aguantaba.
El decidio que la madre que una vez vida le dio,
ahora se la quitara.
El dolor tambien era su dolor, sin poder ayudar
a un hijo que se ahogaba...
Decidio, sin pensar en ley o en Dios,
Le acompaño hasta el cielo.
De la mano le llevo; el dolor amainaba...
El la miro y apretándole la mano, sonrió.
Su vida se apagaba...
Se la juzgo: ni el jurado ni la gente
comprendió lo que ella intentaba...
No hay compasión.
La llamaban asesina y, en prisión,
una madre lloraba...



© LaCuerda.net · aviso legal · privacidad · contacto
DINAMICO