Acordes de Guitarra » W »Warcry » El guardián de Troya (Tab)

El guardián de Troya
Warcry

Letras, Acordes y Tabs para Guitarra, Bajo y Ukulele

  • E|---------------------------------------------------|
    B|---------------------------------------------------|
    G|-------------------------------------2-----2-4-----ª
    D|---2-4-5------2-4-5------2-4-5-4-2-5---5-4---------ª
    A|-3----------3----------3---------------------------|
    E|---------------------------------------------------|
    
      Guitarra 1
    E|----------------------------------------------------|
    B|----------------------------------------------------|
    G|---2-4-4/5v------4-2/4-4--0------2--0-4-------------|
    D|-2--------------------------2---------------0-2-----|
    A|----------------------------------------------------|
    E|----------------------------------------------------|
        Guitarra 1
    E|-------------------------------------------------|
    B|-------------------------------------------------|
    G|---2-4<5------4/2/4---4----------2---4-----------|
    D|-2---------------------5-2---------5---5-2-------|(x2)
    A|-------------------------------------------------|
    
  • E|---------------------------------|
    B|---------------------------------|
    G|-------0---------------0---------|
    D|---2-4-----2-------2-4-----2-----|
    A|-2-------2---2---2-------2---2---|
    E|-------0-------0-------0-------0-|
    
    E|-------------------------------------------------|
    B|-----------------------0-------------0-0h1-------|
    G|-------0-------2---2-4-----------0-2---------2---|
    D|---2-4---4-2-4---2---------2---------------2---2-|
    A|-2-------------0---------2---2-----------0-------|
    E|-------0---------------0-------0-----------------|
    
    E|--------------------------------------------------|
    B|-0------0-----------------------------------------|
    G|----2/4-------0---------2---2-0-4---4-------------|
    D|------------2---2---2-----2-------4---0-2---2-----|
    A|----0-----2-------2---2-0-------2---------2---2---|
    E|-0------0-------------------------------0-------0-|
    
  • e|---------------------------------------------------------------------|
    B|---------------------------------------------------------------------|
    G|---------0-----------------0-----------------0--------0--2--0-----2--|
    D|----2--4-----2-------2--4------2-------2--4-----4--2-----------4-----|
    A|--2--------2---2---2---------2---2---2----2-----2-----2-----2--0--2--|
    E|---------0-------0---------0-------0---------0-----2-----3-----------|
    
    
    e|---------------------------------------------------------|
    B|--0-----------------0---0---------0-----3-----0----------|
    G|-----------------2------5----2-------2--2--2-------0--0--|
    D|--------------2--2---------2---2--0--------------0----0--|
    A|-----2----2---2-----2---0--------------------------------|
    E|--0----0----0---------------------------------3----------|
    
    
    e|----------------------------|
    B|--------------------0---0---|
    G|----------2---2--0----------|
    D|-2---2------2----2----4---4-|
    
  • +
    ¡Colabora con nosotros!
    Envíanos tu versión de esta canción

Letra de El guardián de Troya
Guitarra 1
Guitarra 1
ENTRA LA GUITARRA ELECTRIKA ASIENDO LO MISMO..PERO EN EL 5 TRASTE DE
LA 5 KUERDA. ((EMPEANDO KON UNA ALAIRE!!))
Guitarra 2
ENTRA GUITARRA ELECTRIKA ASIENO QUINTAS...
Y EMPIESA LA KANCION..PARA ACUSTIKA ES ASI-
Destino cruel que me obliga a defender
los frutos de una traición de un desatino
por una mujer todo un reino condenó
no entiendo la situación ni la he elegido
Soy el guardián la llave de mi ciudad
el que dentro quiera entrar peleara conmigo
no hay una razón solo tengo una misión
combatir hasta el final al enemigo
elektrika
Mucho duraria la batalla la presión
nunca han visto un corazón tan vengativo
no me toca ami el buscar la solución
Soy el guardián la llave de mi ciudad
el que dentro quiera estar peleara conmigo
no hay una razón solo tengo una misión
combatir hasta el final al enemigo
Puede que hoy llegue el final
puede que el día yo no vea acabar
mas si ese es mi destino no lo haré esperar
para la electrika..son las quintas..
Base del solo:
Ya se acabó triste final
caigo en la tierra con una herida mortal
mas si ese es mi destino no lo haré esperar
siento llegar la oscuridad
muero tranquilo he luchado hasta el final
por mi hogar doy la vida no puedo ...
...
dar maaaaaaas!!!!!!!!!!!!!!!!!!!!!!!!!!!!!!!!!!!!!!!!!!
graxias ...
Kabro0nes!!!!!!!!
saludos a perla!! y a ale...jaja
y al david k lo va a leer
advertencia..esto es para acustika!!!
r0ox-._:_-*/-




[El guardián de Troya chords][El guardián de Troya cifra]
© LaCuerda.net · aviso legal · privacidad · es · en · pt · contacto
DINAMICO