Acordes de Guitarra » V »los Violadores » El último hombre (Tab)

El último hombre
los Violadores

Letras, Acordes y Tabs para Guitarra, Bajo y Ukulele

  • A-|---------|----------3-3-3-8-8-8-7-5-| 3 veces
    E-|----5----|----1---------------------|
       (n veces)|(n veces)
    
    G-|-------|
    D-|-------|
    A-|-------|
    E-|---5---|
      (n veces)
    
    G-|-------------------|----------------------|
    D-|-------------------|----------------------|
    A-|---3-3-----3-3-----|----------------3-5-7-| 2 veces
    E-|-5-----5-5-----5-5-|-1--3-3--5-5--5-------|
    
    1er verso:
    
    "estoy muy solo, en mi nave espacial..."
    
    G-|----------------------|----------------------|
    
  • +
    ¡Colabora con nosotros!
    Envíanos tu versión de esta canción






[El último hombre chords][El último hombre cifra]
© LaCuerda.net · aviso legal · privacidad · es · en · pt · contacto
DINAMICO