Acordes de Guitarra » V »los Violadores » Más allá del bien y del mal (Tab)

Más allá del bien y del mal
los Violadores

Letras, Acordes y Tabs para Guitarra, Bajo y Ukulele

  •  Como los acordes del tema ya estan en el archivo, 
     ahí mando los punteos y el solo
    
     6-------------------------------------------------------------
     5-2-2-4-5-2-2-4-5-----------4---4-5-2-2-4-5-5-4-4-5-5-4-2-0-2-
     4----------------2-4-2-0-2-0-4-2-----------------2------------
    
     Solo:
     4------------7-----------7---------------9-9-9-7-7-
     3-4-7---7-6-4-4-7---7-6-4-4-7-------9-7-6----------
     2----7-5---------7-5---------8-7-8-7---------------
     1--------------------------------------------------
  • B.------------------------------
    G.------------------------------
    D.-----4---5---4-----4---5----4-     (esto se repite 4 veces ok)
    A.-2-2---2---2---2-2---2---2----
    E.------------------------------
    
    Solo # 1:
    
         Bm                   G              F#m
    e.---------------------------------------------------------
    B.---------------------------------------------------------
    G.---------------------------------------------------------
    D.------------------------2---4-2-0-2-0-------4-2----------
    A.---2-2-4-5-2---2-4-5-------------------4---------4-5-2---
    E.---------------------------------------------------------
    
         Bm                   G              F#m
    e. --------------------------------------------------------
    B.---------------------------------------------------------
    G.---------------------------------------------------------
    
  •  Como los acordes del tema ya estan en el archivo, 
     ahí mando los punteos y el solo
    
     6-------------------------------------------------------------
     5-2-2-4-5-2-2-4-5-----------4---4-5-2-2-4-5-5-4-4-5-5-4-2-0-2-
     4----------------2-4-2-0-2-0-4-2-----------------2------------
    
     Solo:
     4------------7-----------7---------------9-9-9-7-7-
     3-4-7---7-6-4-4-7---7-6-4-4-7-------9-7-6----------
     2----7-5---------7-5---------8-7-8-7---------------
     1--------------------------------------------------
  • +
    ¡Colabora con nosotros!
    Envíanos tu versión de esta canción






[Más allá del bien y del mal chords][Más allá del bien y del mal cifra]
© LaCuerda.net · aviso legal · privacidad · es · en · pt · contacto