Acordes de Guitarra » V »los Violadores » Sentimiento Fatal (Tab)

Sentimiento Fatal
los Violadores

Letras, Notas, Punteos, Tablaturas y Acordes de Guitarra (Tabs & Chords)

  • Letra y Acordes
    Intro:Bm F#m A Em (3)
    Bm-D (2)
    E -D (2)
    (2 VECES)
    
    1)
    Em             D
    Por favor dame otra oportunidad
    Em           D
    solo te pido una noche mas 
    Em             D
    creo que estoy probando tu amor
    Em                    D
    porque no te entregas a mi seducci=F3n
    
    
    2)
    A 
    Algo mas, algo mas, aLgo mas
    G
    
  • Tablatura
    E:--2h4--   Hammer(tocas LA cuerda e en el traste 2 y precionas
                         el traste 4 es el efecto martillo).
    
    ♦ B:--4s2--   Slide(Tocas LA cuerda B en el traste 4 y sin levantar
                        el dedo lo deslisas hasta el traste 2).
    
    ♦ G:--4~--    V(Tocas LA cuerda G en el traste 4 y sin levantar
                    lo haces vibrar).
    
    ♦ D:--4.--    (Esto utizamos cuando hay pausas pequeñizimas
                   en los punteos que le dan el ritmo requerido).
    
    ♦ A:--2p4--   (presionas LA cuerda A en el traste 2 y 4 al mismo
                   tiempo, tocas en el traste 4 y luedo lo sueltas
                   teniendo presienado esa cuerda en el traste 2).
    
    ♦ A        D       -->> estos son los acordes (la 2ra guitarra).
      algo mas alg...  -->> La letra de la cancion (Vocalista).
     e:----2--         -->> los punteos que van al mismo tiempo
     B:--4----              que LA letra y los acordes(la 1ra guitarra).
    
  • Tablatura
    1---------------2--------------------------------------
     ---------3---------------3-2--------2-3-5---3-2-3-----
     ---4-4------4---------4-------2--2-----------------4--
     ------------------------------------------------------
     ------------------------------------------------------
    6------------------------------------------------------
    
    1------------------------------------------------------
     -------------------------5-4--------------------------
     --------------------2---------2-----------------------
     ----4-2---------------4----------4--------------------
     ---------5-2-----2------------------2-----------------
    6------------------------------------------------------
  • +
    ¡Colabora con nosotros!
    Envíanos tu versión de esta canción

Letra de Sentimiento Fatal
(2 VECES)
1)
Por favor dame otra oportunidad
creo que estoy probando tu amor
porque no te entregas a mi seducci=F3n
2)
Algo mas, algo mas, aLgo mas
que ilusiones yo te voy a dar
algo mas, algo mas, algo mas,
algo mas.
1)Dame a mi lo mismo que le diste a el
si yo puedo hacerlo tal cual como es
siento que hoy ya no me puedas ver
porque tan dificil tenia que ser
2)
3)
Extasis, lujuria y placer
llevo marcados en mi piel
(2 VECES)
(repetir intro)
1)
Por favor dame otra oportunidad
intente vivir tal cual como soy
porque tan dificil me resulto
2)Algo mas, algo mas, lago mas
que ilusiones yo te voy a dar
algo mas, algo mas, algo mas,
algo mas.
3)Extasis, lujuria y placer
llevo marcados en mi piel
Extasis, lujuria y placer
llevo marcados en mi piel...



© LaCuerda.net · Aviso Legal · Privacidad