Acordes de Guitarra » V »Viejas Locas » La Simpatica Demonia (Tab)

La Simpatica Demonia
Viejas Locas

Letras, Notas, Punteos, Tablaturas y Acordes de Guitarra (Tabs & Chords)

  • Letra y Acordes
         C5
    Si tenes sobre tu lengua
         A#5
    un pequeño cartón
          C5
    no lo tires ni l escupas
         A#5
    chupalo, por favor
          C5
    porque en pocos minutos
         A#5                  C5     A#5
    la psicodelia estara con vos.
    
    
    No quiero gente amargada
    que esté cerca de mi
    ni tus besos ni caricias
    no puedo resistir
    sólo quiero divertirme
    y espero que pronto estés aquí.
    
  • Tablatura
        C5
    Si tenes sobre tu lengua
         A#5
    un pequeño cartón
          C5
    no lo tires ni l escupas
         A#5
    chupalo, por favor
          C5
    porque en pocos minutos
         A#5                  C5     A#5
    la psicodelia estara con vos.
    
    
    No quiero gente amargada
    que esté cerca de mi
    ni tus besos ni caricias
    no puedo resistir
    sólo quiero divertirme
    y espero que pronto estés aquí.
    
  • Tablatura
       Estiradas>>                                          B
       Estirar y bajar>>>                                   ba
       Slide>>>                                             s
       Sonidos armónicos>>>                                 <>
       Ligados ascendentes>                                 h
       Ligados descendentes>                                p
       Se mantieneestirada>                                 /
       Baja estirada                                        //
       Tremolo                                              *
       Toca nota siguiente con estirada mantenida           b/
    
    
    INTRO
    
                       C5             A#5
    e|---------------------------------------
    B|-11--11--------------------------------
    G|-10b-10ba-8--10--8---8--10-8---6s77----
    D|-------------10--8---8--10-8---6s77----
    A|---------------------------------------
    
  • Tab p/Bajo
    intro
    
    G|--------------------------------------------------------------
    D|--------------------------------------------------------------
    A|---------------------------------5-6-8-6-5--------------------
    E|--6-6-/-8--6-6--8-8--8-5-8--6--6-----------6--8-8--8-5-8-6-6--
    
      ---------------|
      ---5-----------|
      -8---8-6-5-----|
      -----------6---|
    
    
    
    G|-------------------------------------------------------------|
    D|-------------------------------------------------5-----------|
    A|-------------------5-6-8-6-5-------------------8---8-6-5-----|
    E|-8-8--8-5-8--6--6-----------6--8-8--8-5-8-6-6-----------6----|
    
    todo igual hasta antes d entrar al estribillo
    
    
    Si tenes sobre tu lengua
    un pequeño cartón
    no lo tires ni lo escupas
    chupalo, por favor
    porque en pocos minutos
    la psicodelia estara con vos.
    No quiero gente amargada
    que esté cerca de mi
    ni tus besos ni caricias
    no puedo resistir
    
    
    G|-------------------------------------------------|
    D|-------------------------------------------------|
    A|
  • +
    ¡Colabora con nosotros!
    Envíanos tu versión de esta canción

Letra de La Simpatica Demonia
Si tenes sobre tu lengua
un pequeño cartón
no lo tires ni l escupas
chupalo, por favor
porque en pocos minutos
la psicodelia estara con vos.
No quiero gente amargada
que esté cerca de mi
ni tus besos ni caricias
no puedo resistir
sólo quiero divertirme
y espero que pronto estés aquí.
Y si algún día no pudiera reír
con tus dibujos estarías aquí
y la simpática demonia
estaría conmigo otra vez
(se repite el mismo formato de acordes
y si algún día no pudiera gritar
estoy seguro que me vas a ayudar
y la simpática demonia
todo lo que quiera me hará.
Con colores irreales
nos vamos a mezclar
bichos feos y dragones
nos vamos a encontrar
espero que la demonia
nunca se me vaya a acabar.
Y a dimensiones que no existe
te vas a transportar
y no importa donde estemos
nos vamos a encontrar
espero que la demonia
nunca se me vaya de acá.
Y si algún día ...
VAMOS LA CENTENERA RNR LOCO K SE RE SARPA!!!
http://www.lacentenera.8k.com/



© LaCuerda.net · Aviso Legal · Privacidad