Acordes de Guitarra » V »Viejas Locas » 638 (Tab)

638
Viejas Locas

Letras, Acordes y Tabs para Guitarra, Bajo y Ukulele

  • INTRO: ( B5  C5  B5   G5) 2 VECES
           B5  C5  B5  C5  B5  C5  B5   C5  B5
           C5  B5  C5  D5
           G5
    
     G5
    TENIS TANTAS GANAS DE VOLVERTE A VER
    Y EN MI CASA ME DICEN QUE LLAMASTES RECIEN
     C5
    TRATE DE BUSCAR TU NUMERO EN LA GUIA
    PERO TU APELLIDO NUNCA ENTENDI BIEN
           D5           G5
    Y EMPECE.... Y EMPECE
    
    Y EMPECE A PENSAR QUE TENIA EN UN CAJON
    UN VIEJO CUADERNO QUE GUARDABAS VOS
    EN EL ANOTABAS TODO LO QUE HACIAS 
    Y HABIA UN CORAZON QUE DECIA MI AMOR
    LLAMAME AL 638 0465
    
    
  • A#-A#-A#-C-A#-G x2
    A#-A#-A#-C x3
    A#-C-A#-C-A#-D-D-D-D-D-D
    
    G
    Tenia tantas ganas de volverte a ver
    C
    y en mi casa me dicen que llamaste recien
    G
    trate de buscar tu numero en la guia
    C
    pero tu apellido nunca entendi bien
    D
    y empece
    C
    y empece
    
    y empece a pensar que tenia en un cajon
    un viejo cuaderno que guardabas vos
    en el anotabas todo lo que hacias
    
  • C5
    G5
    D
    C
    G
    
    e|-----------------------------------------------
    B|-----------------------------------------------
    G|-----------------------------------------------
    D|8--8--8--10--8--5----8--8--8--10--8--5----8--8--8-- →
    A|8--8--8--10--8--5----8--8--8--10--8--5----8--8--8-- →
    E|6--6--6--8---6--3----6--6--6--8---6--3----6--6--6-- →
    
    D|10--10-10----8--8--8--10--10-10---8--8--8--10--8--- →
    A|10--10-10----8--8--8--10--10-10---8--8--8--10--8--- →
    E|-8---8--8----6--6--6--8---8--8----6--6--6--8---6--- →
    
    D|10---8---10---8-10--12--12--12--12--12--12-12--x-x-x-x-5|
    A|10---8---10---8-10--12--12--12--12--12--12-12--x-x-x-x-x|
    E|8----6---8----6-8---10--10--10--10--10--10-10--x-x-x-x-3|
    
  • SOLO
    
    e|-----------------------------------------------------------
    B|-5----5-8----5-8----5-8------------------------------------
    G|---7b-----7b-----7b-----(unas-cinco-veces)-7v-7ba-5-7-7ba--
    D|-----------------------------------------------------------
    A|-----------------------------------------------------------
    E|-----------------------------------------------------------
    
    e|--------s8--8--8--8---7-7-7--5-5-5--3-3-3-3----------------
    B|--------s10-10-10-10--8-8-8--7-7-7--5-5-5-5s8-5------------
    G|-5-----------------------------------------------7p5-7-7ba-
    D|---7-------------------------------------------------------
    A|-----------------------------------------------------------
    E|-----------------------------------------------------------
    
    e|-------s15-15-15--14--12--10--8--7--5--3-------------------
    B|-------s17-17-17--15--14--12--10-9--7--5s8-5---------------
    G|-5--------------------------------------------7p5-7-7ba-5--
    D|---7------------------------------------------------------7
    
  • INTRO
    
    G-------------------------------------------------------------------------
    D-------------------------------------------------------------------------
    A----------------------------------------------------------5-5-5-5-5-5-5--
    E--6-6-8-6-3----6-6-8-6-3----6-6-8--6-6-8--6-6-8-6-8-6-8-6----------------
    
    
                     G           x4
    ----------------|----------||
    ----------------|----------||
    -5-5-3-3-2-2----|----2-2-3-||
    -------------5-5|--3-------||
    
    
          G      x3                  C          x2  G        x2 D
    G------------||-----------------|-----------||-----------||----------------
    D------------||-5-5-3-3-2-2-----|---2-3-5-3-||-----------||---7-7-5-5-4-4--
    A----2-3-5-3-||-------------5-3-|-3---------||---2-3-5-3-||-5--------------
    E--3---------||-----------------|-----------||-3---------||----------------
    
                    G
    ---------------|-----------------------------------
    ---2-2-3-3-5-5-|-----------------------------------
    -3-------------|---2-2-3
  • +
    ¡Colabora con nosotros!
    Envíanos tu versión de esta canción

Letra de 638
TENIS TANTAS GANAS DE VOLVERTE A VER
Y EN MI CASA ME DICEN QUE LLAMASTES RECIEN
TRATE DE BUSCAR TU NUMERO EN LA GUIA
PERO TU APELLIDO NUNCA ENTENDI BIEN
Y EMPECE.... Y EMPECE
Y EMPECE A PENSAR QUE TENIA EN UN CAJON
UN VIEJO CUADERNO QUE GUARDABAS VOS
EN EL ANOTABAS TODO LO QUE HACIAS
Y HABIA UN CORAZON QUE DECIA MI AMOR
LLAMAME AL 638 0465
Y AGARRE EL TELEFONO Y ME PUSE A MARCAR
TENIA TANTAS GANAS DE VOLVERTE A HABLAR
Y CUANDO ATENDIERON POR VOS PREGUNTE
Y ME DIJIERON QUE TE FUISTES HACE MAS DE UN MES
Y PENSE, Y PENSE
Y PENSE QUE ALGUN DIA TE VOY A ENCONTRAR
SEGURO QUE NOS VAMOS A PONER A HABLAR
PORQUE NO VAMOS A DUDAR QUE HUBO UN GRAN AMOR
COMO ME DECIA EN ESE CORAZON
LLAMAME AL 638 0465
PORQUE NO VAMOS .........
ESPERO QUE LES GUSTE, CUALQUIER DUDA ESCRIBI A Rolinga21@hotmail.com




[638 chords][638 cifra]
© LaCuerda.net · aviso legal · privacidad · es · en · pt · contacto