Acordes de Guitarra » V »La Vela Puerca » Un frasco (Tab)
  • Letra y Acordes
       G      D#      G      D#
    E-----3--------|-----3------------|
    B-------3-4----|-------3-4--------|
    G--0-----------|--0---------------|
    D--------------|------------------|
    A--------------|------------------|
    E--------------|------------------|
    
    Riff (Bajo)
    E|---3-2-3----------------|---3-2-3----------------------|
    B|---------1-0-1----------|---------1-0-1--------1-0-1---|
    G|---------------1-0-1----|---------------1-0-1----------|
    D|------------------------|------------------------------|
    A|------------------------|------------------------------|
    E|------------------------|------------------------------|
    
    |---3-2-3----------------|---3-2-3----------------|
    |---------1-0-1----------|---------1-0-1----------|
    |---------------1-0-1----|---------------0-1------|
    |------------------------|------------------------|
    
  • Tablatura
    e|---------|--------------------------------------
    B|---8-----|--------------------------------------
    G|-----7-8-|-----------------8-7-8-7-8-7-8-7-8-7-
    D|-5-------|--5-4-5-5s8-7-8-----------------------
    
    e|--------------------------------------|
    b|-----------------------------8-7-8----|
    g|-----------------8-7-8-7-8-7----------|
    d|--5-4-5-5s8-7-8-----------------------|
    
    G|-----------------8-7-8-7-8-7-8-7-8-7-
    D|--5-4-5-5s8-7-8-----------------------
    
    G|----------------7-8-|
    D|--5-4-5-5s8-7-8-----|
    
    
    (12:24) I      II          (12:25)
    B|---8-----|-----------8-|---8---------|
    G|-----7-8-|-----7-8-7---|-----7-Eb5pm-|
    
  • Tab p/Bajo
    Aca les dejo esta tablatura de este temazo...
    
    El bajo entra con la bata y la segunda guitarra
    despues del punteo de la primera...
    
    x=Repite varias veces la misma nota
    
    INTRO
    G|-------------------------------------------------------
    D|-------------------------------------------------------
    A|-------------6-5-6-------------6-5-6-------------------
    E|-3-2-3-6-5-6-------3-2-3-6-5-6------6-5-6--------------
    
    G|-------------------------------------------------------
    D|-------------------------------------------------------
    A|-------------6-5-6-------------5-6/13------------------
    E|-3-2-3-6-5-6-------3-2-3-6-5-6-------------------------
    
    VERSO(en el primer verso el bajo lo unico que hace
    es esto en la parte que dice "seguro hay motiivos")
    G|-8-8----------
    D|--------------
    A|--------------
    E|-—------------
    
    ESTRIBILLO1
    G|--------------
    D|-------------- x4
    A|-------6x-----
    E|-6x-1x--------
    
    Lento,suave,letal
    G|----------------
    D|----------------
    A|---6-4------4---
    E|-4-----4-6x---4-
    
    VERSO2(
  • +
    ¡Colabora con nosotros!
    Envíanos tu versión de esta canción

Letra de Un frasco
Riff (Bajo)
(Se continúa con el riff 1 con la guitarra si se prefere)
Hola, dejen el saco en mi alcoba
y después me siguen,
tengo ganas por este momento;
hoy será distinto:
creo que la cena está servida,
y disfruten de todo.
Luego hablemos amablemente,
seguro hay motivos.
Estribllo:
Me pregunto, y titubeo, si sospechan lo que espero
que suceda hoy aquí;
Tengo planes para todos, tengo fuerza, tengo el modo,
incluyéndome hasta mí:
len to, sua ve, letal.
Miren, una vez más todos juntos
¿cómo es que han estado?
juro, los extrañé muchas veces,
voy a ser sincero.
Mientras, háblenme sobre sus cuentas,
seguro han crecido,
vamos, que hay que brindar por la nuestra,
y un vino merecido.
Estribllo:
Me pregunto, y titubeo, si sospechan lo que espero
que suceda hoy aquí;
Tengo planes para todos, tengo fuerza, tengo el modo,
incluyéndome hasta mí:
len to, sua ve, letal.
Riff (Bajo)
Rian, todo seguro y en calma,
pero no se olviden:
traten de recordar las mentiras
que sostienen sus vidas.
Gusten, el vino está un poco raro,
pero no se asusten;
pasen juntos para el otro lado,
que yo también soy malo.
Estribllo:
Me pregunto, y titubeo, si sospechan lo que espero
que suceda hoy aquí;
Tengo planes para todos, tengo fuerza, tengo el modo,
incluyéndome hasta mí:
len to, sua ve, letal.
Ya no hay duda, y entendieron,
copas rotas por el suelo:
hoy la Muerte va a venir,
y el diario saldrá diciendo del horror que ha sucedido
y que el veneno era así:
len to, sua ve, letal. [x3]
Ehí esta mejor ;)
.::Lauchys::.



© LaCuerda.net · aviso legal · privacidad · contacto
DINAMICO