Acordes de Guitarra » V »V8 » Parcas Sangrientas (Tab)

Parcas Sangrientas
V8

  • Tablatura
    e|------------------------------------------------------|
    B|------------------------------------------------------|
    G|------------------------------------------------------|
    D|-----9---------2------9---------2--------9---------2--|
    A|-7---7--5--3v--0--7---7--5--3v--0----7---7--5--3v--0--|
    E|-5----------------5------------------5----------------|
                                              Hea vy me tal
    
    e|-----------|-|---|-----------|-|-----------------------
    B|-----------|-|---|-----------|-|-----------------------
    G|-----------|X|---|-----------|X|-----------------------
    D|-----------|4|-2-|-----------|2|---------------------2-
    A|-5-3-0-(0)-|-|-0-|-5-3-0-(0)-|-↑-5v--3--0--5-3-0-(0)-0-
    E|-----------|-|---|-----------|-|-----------------------
    
    -----------|-|-----------------------------------|-------------------|
    -----------|-|-----------------------------------|-------------------|
    -----------|X|-----------------------------------|-------------------|X
    -----------|4|-----9---------2-------------------|-------------------|3
    -5-3-0-(0)-|-|-7---7--5--3v--0--0-5-3-0--(0)--0--|--0--5-3-0--(0)--0-|
    
  • Tab p/Bajo
              (3 veces)
     “Heavy metal!…
    G|---------------------------|-----------------------------------------------
    D|-----2---------------------|------------------------------------------14---
    A|-0------5--3--0------------|-5\12--------------12\0-----------------5/12---
    E|---------------------------|-----------------------------------------------
    
                           (2 veces)
    G|---------------------------------------------------------------|----------
    D|-2--5----------------------------------------------------------|2--5------
    A|-------3--0--3|2|0|0--3|2|0|0--3|2|0|0--3|2|0|0--3|2|0|0--3|2|0|------3--0--
    E|---------------------------------------------------------------|----------
    
    …sacrificio y muerte hay…
    G|--------------
    D|--------------
    A|--h5/12----12\
    E|--------------
    
            …con sangre han hecho rios…                                 \
    G|----------------------------------------------------------------  |
    D|-------------------------------14-14|14-14----------------------
  • +
    ¡Colabora con nosotros!
    Envíanos tu versión de esta canción

Letra de Parcas Sangrientas
Hea vy me tal
-7--5--3--0-|-0--5-3-0--(0)--0-|-|-0--5-3-0--(0)--7--5--3--0-|
Sacrificio y muerte hay
Con sangre han hecho rios.
Son los dioses del olimpo
Reclamando cuerpos frios.
Es inutil escapar
En sus brazos no hay piedad.
-0-|-0-5-3-0--(0)--0-|-|-0-5-3-0--(0)--7--5--3--0--
-0-5-3-0--(0)--0--|-|-0--5-3-0--(0)--7--5--3-|
Ya las parcas nos invitan
A sus ritos asquerosos
Panico hay al descubrir
Maldicion en esos rostros
esta parte es a la vez (preferible hacerlo con dos violas)
Es inutil escapar
En sus brazos
no hay piedad
-0-5-3-0--(0)--0--|-|-0--5-3-0--(0)--7--5--3--0--|
-0-5-3-0--(0)--0--|-|-0--5-3-0--(0)--7--5--3--0--|
-0--(0)--0--|-0--5-3-0--(0)--0-|-|-7--5--3--0--|
Brazas, rocas arden hoy
Todo es degeneracion
Magma ardiente hoy soy parte
De tu enfermiza pasion
pasion
final:



© LaCuerda.net · aviso legal · privacidad · contacto