Acordes de Guitarra » U »El Ultimo ke zierre » Amigo imaginario (Tab)

Amigo imaginario
El Ultimo ke zierre

Letras, Notas, Punteos, Tablaturas y Acordes de Guitarra (Tabs & Chords)

  • Letra y Acordes
    e|------------|---------------------------|---------------|
    B|-------8----|-10^--10--10--10--9&7------|---------------|
    G|-7--9-----9-|-----------------------9&7-|--riff 1 (x3)--|
    D|------------|---------------------------|---------------|
    A|------------|---------------------------|---------------|
    E|------------|---------------------------|---------------|
     | riff 1 (x3)|
    
    
    e|----------------|
    B|-8--10--8^------|
    G|------------9---|        Mientras suena los riffs 1, se
    D|----------------|        tocan los acordes B5 G5 A5
    A|----------------|
    E|----------------|
    
    
    E5              C5
    Tiene un amigo imaginario
    A5
    
  • Tablatura
    e|-------3-------------3--------------3-----5)------
    B|--3--5--5-555---3--5--5-555----3--5--5-55----5----
    G|--------------------------------------------------
    D|--------------------------------------------------
    A|--------------------------------------------------
    E|--------------------------------------------------
    
    e|-------3-------------3--------------3------3-5-3--
    B|--3--5--5-555---3--5--5-555----3--5--5-555-------5
    G|--------------------------------------------------
    D|--------------------------------------------------
    A|--------------------------------------------------
    E|--------------------------------------------------
    
    MI5                  DO5
    Tiene un amigo imaginario
    LA5
    que le pide que asesine al vecindario,
    MI5            DO5
    y no le deja vivir
    
  • +
    ¡Colabora con nosotros!
    Envíanos tu versión de esta canción

Letra de Amigo imaginario
| riff 1 (x3)|
Tiene un amigo imaginario
Que le pide que asesine al vecindario
Y no le deja vivir
Clavando una obsesión en su cabeza
Y la emprende, sin prisas
Desde el primero hacia arriba
Tranquilo le cuenta
Que la muerte es muy zalamera
(Ahora se repite todo el punteo del principio)
La dura jornada de trabajo y la hemoglobina dejan agotado
Descansa tras la matanza...
Sirenas, ya llegan... alguien ha debido llamar a la pasma
Y aquel plantado con su amigo imaginario.
|Estos dos
|acordes están
Lo llama, lo llama... |final de la
¿Dónde está lo prometido?
Para un poco y se da cuenta
Que lo prometido es dejarlo bien jodido.
Tiene un amigo imaginario
Que le pide que asesine al vecindario
Y no le deja vivir
Clavando una obsesión en su cabeza
Lo llama, lo llama...
¿Dónde está lo prometido?
Por último se vuelve a tocar otra vez el punteo del principio,
pero esta vez con algunos cambios (aunque los acordes que suenan
de fondo siguen siendo los mismos):
||- - x3- - -| |
| |
|- - - - - - x2 - - - - - |
Y ya está!
Acordes e5 y E5:
Weno pos esto es todo... como veis es muy fácil y está muy bien
Un saludo para la gente de Mérida y a disfrutar del rock español.



© LaCuerda.net · Aviso Legal · Privacidad
DINAMICO