Acordes de Guitarra » T »los Tres » Somos tontos no pesados (Tab)

Somos tontos no pesados
los Tres

Letras, Acordes y Tabs para Guitarra, Bajo y Ukulele

  • Intro: C9-C6-Bb6-C6-Bb6 (varias veces)-(punteo)
    
    (Los mismos acordes del intro)
    Somos tontos, no pesados
    Somos tontos, no pesados
    Repito tontos,no pesados
    Somos tontos, no pesados
    
    (punteo)
    
    Somos tontos, no pesados
    Somos tontos, no pesados
    Repito tontos, repito pesados
    Somos tontos, no pesados
    
    Somos tontos, no pesados
    Somos tontos, no pesados
    Nos creyeron tontos, nos creyeron pesados
    Nos creyeron tontos, nos creyeron pesados
    Creyeron pesados
    
  • hola aki les mando este tab q esta bien bueno :)
    
    Intro:
    
    G:5---5-5---5-5---5-5
    D:-------------------
    A:-------------------
    E:-------------------
    
    versos:
    
    G:3-1-0---------3-1-0---------
    D:-----3-1-0---------3-1-0----
    A:-----------0-3------------0-
    E:----------3--------------3-3
    
    G:3-1-0----------3-1-0---------
    D:-----3-1-0----------3-1-0----
    A:-----------0-3--------------0
    E:----------3--------------3-3-
    
    Interludo:
    
    G:------------------------------------------
    D:-----------0---------------------0--------
    A:3-3---1--1---3-3---1-1---3-3-1-1---3-3---1
    E:----3--3---------3--3-3-----3-3-------3-3-
    
    Solo de bajo:
    
    G:--------------5-4-------2-2-2-2/3
    D:----------5-4-----5--------------
    A:--1---3-3-----------3-3----------
    E:3---3----------------------------
    
    Después del solo sube un tono:
    
    G:--------------------------------------------------
    D:------------0---------3-1-0-------------0---------
    A:3-3---1---1---3-3-4-1-------3-3---1---1---3-3----1
    E:----3---3-----------------------3---3------
  • Esta es una corrección a la versión que se encontraba en el sitio,
    con los cambios necesarios para sonar como la versión del disco.
    
    Intro:
    G |---------------------|
    D |---------------------|
    A |--3--33--33--33------|
    E |---------------------|
    
    
    Verso:
    
    G|-----------------------------------------------------|
    D|--5--3--0------------------5--3--0-------------------|
    A|-----------3-----1--3--1------------3--1--3--1-------|
    E|--------------3--------------------------------------|
    
    
    G|-----------------------------------------------------|
    D|--5--3--0------------------5--3--0-------------------|
    A|-----------3-----1--3--1------------3--1-------------|
    E|--------------3--------------------------------------|
    
    
    Interludio:
    
    G|------------------------------------------------------------------------|
    D|--------------------0-------------------------------------0-------------|
    A|--33------1------1-----33-----1-----1-----33-----1-----1-----33-----1---|
    E|-------3-----3-------------3-----3-----3
  • +
    ¡Colabora con nosotros!
    Envíanos tu versión de esta canción

Letra de Somos tontos no pesados
(Los mismos acordes del intro)
Somos tontos, no pesados
Somos tontos, no pesados
Repito tontos,no pesados
Somos tontos, no pesados
(punteo)
Somos tontos, no pesados
Somos tontos, no pesados
Repito tontos, repito pesados
Somos tontos, no pesados
Somos tontos, no pesados
Somos tontos, no pesados
Nos creyeron tontos, nos creyeron pesados
Nos creyeron tontos, nos creyeron pesados
Creyeron pesados




[Somos tontos no pesados chords][Somos tontos no pesados cifra]
© LaCuerda.net · aviso legal · privacidad · es · en · pt · contacto