Acordes de Guitarra » T »los Tres » la Espada & la Pared (Tab)

la Espada & la Pared
los Tres

  • Letra y Acordes
     B |------------------------------------------
     G |------------------------------------------
     D |------------------------------------------
     A |------------------------------------------
     E |------------------------------------------
    
    I
    
    E7
    
    Hablar sin pensar
    Pensar sin hablar
    Servicio militar
    Muerte cerebral
    Cerrar sin abrir
    Primaveras mil
    Una sorda feliz
    Se jactó de nuestro fin
    
    II
    
  • Tablatura
     MI:-12-0-0-10-0-0-9-0-0-7-0-0-5-0-0-0-3-2-1-0 (X-2)
     SI:------------------------------------------
    SOL:------------------------------------------
     RE:------------------------------------------
     LA:------------------------------------------
     MI:------------------------------------------
    
    //Esto es lo que sigue una vez que comienza a tocar la banda completa
    //antes de comenzar a cantar (aun es parte de la introduccion)
    
     MI:-10--9---7--7-----10--10--9---7--7---7--------
     si:-12--10--8--8--8--12--12--10--8----8---8--8---
    SOL:---------------9--------------------------9---
     RE:----------------------------------------------
     LA:----------------------------------------------
     MI:----------------------------------------------
    
     mi:-10--9---7--7-----
     SI:-12--10--8--8--8--
    sol:---------------9--
    
  • Tab p/Bajo
    kius este es mi primer tab pero ta recomendado por mi banda
    asi q ta weno, disfrutenlo
    
     intro:
    |-----|-----|
    |-----|-----|   x2
    |-----|-----|
    |--0--|--0--|
    |-----------------------|
    |--------7-7------------|   x4
    |--7-5-5--5-5-7-5-5--56-|
    |-----7----------7-77---|
    
    verso 1:
    |-----------------|
    |-----------------|   x4
    |-7---5-6-7-------|
    |---7-------7-6-7-|
    
    |-----------------------|
    |--------7-7------------|   x2
    |--7-5-5--5-5-7-5-5--56-|
    |-----7----------7-77---|
    
    verso 2:
    |-----------------|
    |-----------------|   x4
    |-7---5-6-7-------|
    |---7-------7-6-7-|
    
    interludio:
    |-------------|
    |-------------|
    |-------------|
    |5-5-5-88-7-6-|   x4
    
    |-----------------------|
    |--------7-7------------|   x2
    |--7-5-5--5-5-7-5-5--56-|
    |-----7----------7-77---|
    
    verso 3:
    |-----------------|
    |-----------------|   x8
    |-7---5-6-7-------|
    |---7-------7-6-7-|
    
    interludio:
    |-------------|
    |-------------|
    |-------------|
    |5-5-5-88-7-6-|   x6
    
    precoro:
    |
  • +
    ¡Colabora con nosotros!
    Envíanos tu versión de esta canción

Letra de la Espada & la Pared
I
Hablar sin pensar
Pensar sin hablar
Servicio militar
Muerte cerebral
Cerrar sin abrir
Primaveras mil
Una sorda feliz
Se jactó de nuestro fin
II
Tirar sin lanzar
No, no llega el dolor
Y si es lo peor
Muerto vivo mejor
Tirar sin lanzar
No, no llega el dolor
Y si es lo peor
Muerto vivo mejor
III
Triángulo de amor
Bermuda del dolor
Disparo al corazón
Burbuja del terror
Caída sin soltar
Estruendo sin igual
Palabras al pasar
No hay forma de frenar
IV
Sexo sin mirar
Mi almohada puede más
Que todo tu amor
Que vive en mi bolsón
La salida viene atrás
Corte cerebral
El principio es al final
Consomé de callampas
Dulce miel de arañas
Consomé
Dulce miel
No endulza sin picar
La espada & la pared
Me atraviezan y no al revés
La espada & la pared
Me atraviezan y no al revés
III
Triángulo de amor
Bermuda del dolor
Disparo al corazón
Burbuja del terror
Caída sin soltar
Estruendo sin igual
Palabras al pasar
No hay forma de frenar
IV
Sexo sin mirar
Mi almohada puede más
Que todo tu amor
Que vive en mi bolsón
La salida viene atrás
Corte cerebral
El principio es al final
La espada & la pared
Me atraviezan y no al revés
La espada & la pared
Me atraviezan y no al revés



© LaCuerda.net · aviso legal · privacidad · contacto