Acordes de Guitarra » T »los Tres » Hojas de thé (Tab)

Hojas de thé
los Tres

Letras, Acordes y Tabs para Guitarra, Bajo y Ukulele

  • DO*
        ------/
       1 ||||||
       2 ||||||
       3 |o||||
       4 ||||||
       5 ||oo||
    
    -Las notas 7 indicadas en esta transcripcion
     son otra posición de la nota, las que estan al final.
    -Sin más esta es la canción
    
     Intro:   LAm-RE7-LAm-DO*-SI*-LA#*-LAm
              LAm-RE7-LAm-SOL*---LAm
    
     LAm       RE7
     A)Hojas de té
     LAm       DO*-SI*-LA#*-LAm
     no se si sirven muy bien
     LAm   RE7
    
  •         LA          RE          LA-SOL
    e|---------15-----------17----------------------
    B|--12/15---------15/17--------17-15----------~-
    G|-------------------------------------17--14---
    D|----------------------------------------------
    A|----------------------------------------------
    E|----------------------------------------------
    
            LA          RE          LA-SOL
    e|---------15-----------17---------20-20-20-20--
    B|--12/15---------15/17------------20-20-20-20--
    G|----------------------------------------------
    D|----------------------------------------------
    A|----------------------------------------------
    E|----------------------------------------------
    
    
    
    LA        RE
    Hojas de té
    
  • Bueno amigos, nuevamente les envío una tab para los
    bajistas, ojalá les ayude un poco.
    
    Inicio tema:
    
    A)
    1------------------------------------------------------------
    2------------------------------------------------------------
    3--0--0-5-3-0--0-3-2-1-0-0-5-3-0--0-----------3-0- de nuevo--
    4-----------------------------------3-0-3-0-3----------------
    
    Canto:
    
    A)
    Hojas de té no se si sirven muy bien para poder hacer lo que quiero hacer
    1-----------------------------------------------------------------
    2-----------------------------------------------------------------
    3--0--0-5-3-0--0-3-2-1-0--------------0-5-3-0--0--------------3-0-
    4---------------------------------------------------3-0-3-0-3-----
    
      
    A)
    no te entendi bien, tenías o no?
    la biblia también nos sirve, la fuerza o la razón.
    
       
    A)Azúcar, café, escalofrios después
    viejo y paralizado de la punta a los pies
    cesante otra vez, aburrimiento sin fin
    prefiero morir en la cárcel que seguie aq
  • +
    ¡Colabora con nosotros!
    Envíanos tu versión de esta canción

Letra de Hojas de thé
1 ||||||
2 ||||||
3 |o||||
4 ||||||
5 ||oo||
-Las notas 7 indicadas en esta transcripcion
son otra posición de la nota, las que estan al final.
-Sin más esta es la canción
A)Hojas de té
no se si sirven muy bien
para poder hacer
lo que quiero hacer
no te entendí bien,
tenías o no
la Biblia también nos sirve,
la fuerza o la razón.
B)Azúcar, café, escalofríos después
viejo y paralizado de la punta a los pies
cesante otra vez, aburrimiento sin fin
prefiero morir en la cárcel que seguir aquí
C)Los recuerdos harán que te olvide (3 veces)
que no se te olvide acordarte
que me tienes que olvidar
A)En el mismo andén estoy contando hasta diez
y sin pensar demasiado piquero a la línea del tren
no caí muy bien el tren se descarriló
a salvo, molido y consciente no lo quiero creer
C) Los recuerdos.... (se repite C)
que no se te olvide..
Al final :
que no se te olvide acordarte
que me tienes que olvidar
Notas 7
1||||o| 3||||o| 7||||o|
2||o||| 4||o||| 8||o|||
3|o|o|| 5|o|o|| 9|o|o||
|||||| |||||| ||||||




[Hojas de thé chords][Hojas de thé cifra]
© LaCuerda.net · aviso legal · privacidad · es · en · pt · contacto