Acordes de Guitarra » T »los Tres » Flores Secas (Tab)

Flores Secas
los Tres

Letras, Acordes y Tabs para Guitarra, Bajo y Ukulele

  •           Am7         Em
    Ya no hay nada que se pueda mirar
    
              Am7        Em7
    ya no hay nadie para poder hablar
    
       Am          Em         Am7   Em7
    cargando luces en el mar
    
           Am7       Em7
    flores secas oxcidando tu amor
    
           Am        Em
    flores secas olvidando el dolor 
    
       Am7         Em7        Am   Em
    cargando luces en el mar
    
    Bm7          A#maj7      Am7         D
       y vi la masacre sin saber porque
    
  • solo
    e-----------|-------------|-----------------|--------------------
    B-----------|-------------|-----------------|--------------------
    G-------7-9-|--------7--9-|--------7-7----9-|----------7---------
    D-7--10-----|--7--10------|--7--10-----10---|--7-7--10---10-7----
    A-----------|-------------|-----------------|--------------------
    E-----------|-------------|-----------------|--------------------
    
     ------------|-------------------|------------------------------------------
     ------------|-------------------|------------------------------------------
     --------9-9-|------------7------|--------9-9-9-9-9-8-7---------------------
     -7--10------|--7--1010-----10-9-|-7--10----------------10--7-7----7-7--7---
     ------------|-------------------|------------------------------------------
     ------------|-------------------|------------------------------------------
    
     -----------------------------------|--------------------------------|---------------------
     -7------------------------
  • intro:
    G---------------------------------------------
    D----7--------------------------7-------------
    A-0-----5-6-7--7-------------------5-6-7------
    E----------------7-0---0-3-3-5----------------
    
    verso i
     --------------------------------------------------
     ----7--------------------7------------------------
     -0-----5-6-7--7-------0-----5-6-7--7--------------
     ----------------8--7-----------------8--7---------
    
     --------------------------------------------------
     ----7--------------------7------------------------
     -0-----5-6-7--7-------0-----5-6-7--5--7--7-5-7----
     ----------------8--8------------------------------
    
    verso ii
     --------------------------------------------------
     ----7---------------------7-----------------------
     -0-----5-6-7--7--------0-----5-6-7--7-------------
     -----------------8--7-----------------8--7--------
    
     ---------------------------------------------
     ----7---------------------7------------------
     -0-----5-6-7--7--------0-----5-6-7--7---
  • +
    ¡Colabora con nosotros!
    Envíanos tu versión de esta canción

Letra de Flores Secas
Ya no hay nada que se pueda mirar
ya no hay nadie para poder hablar
cargando luces en el mar
flores secas oxcidando tu amor
flores secas olvidando el dolor
cargando luces en el mar
y vi la masacre sin saber porque
y vi la masacre sin saber porque
[mini-solo de guitarra, continuan los acordes]
Ya no hay nada que se pueda mirar
ya no hay nadie para poder hablar
cargando luces en el mar
flores secas oxcidando tu amor
flores secas olvidando el dolor
cargando luces en el mar
y vi la masacre sin saber porque
y vi la masacre sin saber porque
[continua los acordes, Am7 Em ]
alguien esta matando y no puede dejar
alguien esta matando y no puede dejar de pensar y escuchar
sobre un martes, sobre un martes de horror
era un martes, era un martes de horror,
era un martes, era un martes de horror,
era un martes




[Flores Secas chords][Flores Secas cifra]
© LaCuerda.net · aviso legal · privacidad · es · en · pt · contacto