Acordes de Guitarra » T »los Tres » Don José (Tab)

Don José
los Tres

Letras, Acordes y Tabs para Guitarra, Bajo y Ukulele

  •    B7
    E-7-9--10-11--9-7----11--9-7----11-11-11-11-11-
    B-9-10-11-12-10-7----12-10-7----12-12-12-12-12-
    G----------------------------------------------
    D----------------------------------------------
    A----------------------------------------------
    E----------------------------------------------
    
                     E7
    E-9-7---11-9--7--12-12-12-12-------
    B-10-7--12-10-7--12-12-12-12-9-8-9-
    G----------------------------9-8-9-
    D----------------------------------
    A----------------------------------
    E----------------------------------
    
      B7
    E-7-9--10-11--9-7----11--9-7----11-11-11-11-11-
    B-9-10-11-12-10-7----12-10-7----12-12-12-12-12-
    G----------------------------------------------
    
  • +
    ¡Colabora con nosotros!
    Envíanos tu versión de esta canción

Letra de Don José
VERSO:
Chaqué de la colonia
Polaina, Tongo y Bastón
Es toda la elegancia
Que tiene nuestro Barón
Teñido con peluca
Un cuello descomunal
Se lo pasa todo el día
Paseando por el portal
Don José
Es química completa
Alarmado tiene a todo el vecindario
Don José
Se recoge a las tres
Al pasar se asoman las chiquillas
Cuando desfila por el portal
Se repite lo anterior una vez más, después viene el solo
y termina con el coro
FINAL:
Álvaro Henríquez:
Ángel Parra:
Acordes:
Dedicado a todos los fans de los tr3s, saludos desde
la cuna del rock chileno.




[Don José chords][Don José cifra]
© LaCuerda.net · aviso legal · privacidad · es · en · pt · contacto
DINAMICO