Acordes de Guitarra » T »los Tres » De hacerse se va a hacer (Tab)

De hacerse se va a hacer
los Tres

Letras, Acordes y Tabs para Guitarra, Bajo y Ukulele

  • e-------------------------------------------
    b-------------------------------------------
    g---0--------0---------0---------0-0---0----
    d-----3-0------3--0------3-0---------3------
    a---------1---------3-----------------------
    e-3--------------------------3--------------
    
    Y esto toca Titae (bajo)
    e--------------------------------------------
    b--------------------------------------------
    g-------------------5------------------------
    d-5------------------------------------------
    a-5-----------5-3--------3-5-3---------------
    e-3-------5-6----------6--------6-5-3--------
    
    
    
    Usar capo en el 3er traste.
    Ver los acordes al final, pues Henríquez hace de otra manera el Em7.
    
    
  • Este es tema es genial! ud. hagan algunos detalles...  
    un saludo para Ud. Claudia !
    
    A)Intro
    G |-------------------------------------------------------------------
    D |-----5-3-1----5-3-1----5-3-1-----5535------------------------------
    A |----------1~-------3~-------1~-------------------------------------  2X
    E |--5~---------------------------------------------------------------
    
     B)0:19
    G |-------------------------------------------------------------------
    D |-------------------------------------------------------------------
    A |-------------------------------------------------------------------  2X
    E |--03-4-2---03-4-2---03-4-2---03-4-2--------------------------------
     
     C)0:35   
    G |-------------------------------------------------------------------
    D |---------535----------535----------535-----------------------------
    A |-5-53-31------5-53-31------5-53-31---------------------------------
    E |-------------------------------------------------------------------
    
    G 
  • +
    ¡Colabora con nosotros!
    Envíanos tu versión de esta canción

Letra de De hacerse se va a hacer
Y esto toca Titae (bajo)
Usar capo en el 3er traste.
Ver los acordes al final, pues Henríquez hace de otra manera el Em7.
De hacerse, se va a hacer
La corona corona de espinas
De caerse se va a caer
El planeta es ceremonia
Silencio en las bancas
las formas trabajan
abiertas las pupilas
Un cielo que remata
De verse, se van a ver
tormenta en las pestañas
vueltas siniestras
al anochecer
Saludo de baratas
informe en planta baja
difícil preparar
una dieta en el alma
De hacerse, se va a hacer
una cúspide en las sombras
De subirse se va a subir
escamas en la estrofa
u u uuuuuuuuuu u
Reiteradas veces hasta el final.
Y termina con Esus4.




[De hacerse se va a hacer chords][De hacerse se va a hacer cifra]
© LaCuerda.net · aviso legal · privacidad · es · en · pt · contacto