Acordes de Guitarra » T »Terrícolas » Luto En Mi Alma (Tab)

Luto En Mi Alma
Terrícolas

Letras, Acordes y Tabs para Guitarra, Bajo y Ukulele

  • Intro: F, Am, F, G, C, Em, C, G, C, G, C, G, C/
    
                   C    Em  C
    Hay luto en mi alma
    Dm   G7         C
    El amor que un dia
    Dm   G7     C
    Era mi alegria
    Am         Dm
    Era mi ilusion
    
    
    Hay luto en mi alma
                    G7
    La he visto con otro
        F       G7      F
    Llevaba sus libros 
                  G7
    Le hablaba al oido
                  C   Am-Dm/
    
  •     C                                 Am
    E-0---------------------------------------------------------------------T
    B-1--------------------1--------------1--------------1-------------3----e
    G-0-----------------2--------------2--------------2-------------4-------c
    D-2--------------3---------3----2---------2----3---------3---5--------5-o
    A-3--3--2--1------------------------------------------------------------u
    E-0---------------------------------------------------------------------2
    
    
          C
    E-0-----------------------------------0---3---1------0-1---3-----------T
    B-1---------1--0----------0--1--------1---5---3----3-----3-------------e
    G-0-------0-------------0----------0-----------------------------------c
    D-2-----2-------------2------------------------------------------------o
    A-3--------------------------------------------------------------------u
    E-0--------------------------------------------------------------------2
    
    
          C
    E-------------1-----0-----0----1---3---------------------T
    
  • +
    ¡Colabora con nosotros!
    Envíanos tu versión de esta canción

Letra de Luto En Mi Alma
Hay luto en mi alma
El amor que un dia
Era mi alegria
Era mi ilusion
Hay luto en mi alma
La he visto con otro
Llevaba sus libros
Le hablaba al oido
Palabras de amor
Sintiendo en el pecho
El rencor y el celo
Miraba a las chicas
Saliendo de clases
Y yo estaba ahi
Quizas sin aliento
Pensando en mi suerte
Pero sin llorar
Aquel dolor, aquel dolor
Dentro de mi
Lloraba en silencio
Por tanta crueldad,
Ha muerto un amor,
Ha muerto un amor
Dentro de mi
Lloraba en silencio
Por tanta crueldad,
Ha muerto un amor,
Ha muerto un amor
Ha muerto un amor,
Ha muerto un amor




[Luto En Mi Alma chords][Luto En Mi Alma cifra]
© LaCuerda.net · aviso legal · privacidad · es · en · pt · contacto