Acordes de Guitarra » T »Terrícolas » Te Juro Que Te Amo (Tab)

Te Juro Que Te Amo
Terrícolas

Letras, Acordes y Tabs para Guitarra, Bajo y Ukulele

  •     G
    Te juro que te amo
    
    Afuera esta lloviendo
    
    Por dentro estoy temblando
            C
    Porque tu te vas
    
    (Porque yo me ire)
                Am
    Muy pronto partiras
    
    (Muy pronto partire)
         C
    Un tren desconocido
      D7        G
    Pronto tomaras
    
        G
    
  • G
    Te juro que te amo
    
    afuera está lloviendo
    
    por dentro estoy temblando
           C
    porque tú te vas  (porque yo me iré)
                Am
    muy pronto partirás (muy pronto partiré)
       C                 D7         G
    un tren desconocido pronto tomarás
    
    G
    No queda mucho tiempo
    
    te juro que te amo
    
    ahora estás llorando
             C
    
  •    C              D7          Bm             Em           D         D7                  Te juro que...
    e-----12-10-----------------10-10-----------------------|------------------------------
    B--13-------13-12-10--12-13-------12-10-----10-12-13-10-|--10h12-13-15-13-12-10--*12~~-
    G-(12)-----------(7)---------------------12----------(7)|------------------------*12~~-
    D-(14)--------------------------------------------------|------------------------*12~~-
    A-------------------------------------------------------|------------------------------
    E-------------------------------------------------------|------------------------------
    *Con organo
    
        G
    Te juro que te amo
    Afuera esta lloviendo
    Por dentro estoy temblando
            C
    Porque tu te vas
    (Porque yo me ire)
                Am
    Muy pronto partiras
    (Muy pronto partire)
         C
    
  • e------|--^-A----|-|-^-|--|
    B--^---|--|-A----|-|-|-|--|
    G--|---v--|-A----v-v-|-v--|
    D--|-----------^-----|----|
    A--|-----------|-----|----|
    E--|-----------|----------|
    
    INTRO (0:00)
    
       D             E                      C#                    F# 
    e-----2--0----|--------^-A-----------|--------------------|-----|--^-A------------|
    B--3--3--3--3-|--2--0--|-A-----2--3--|--5----3----2----0--|-----|--|-A-----0-2-3--|
    G-----------2-|--2-----|-A-----------|--------------------|--2--V--|-A------------|
    D--0----------|-------------^--------|--------------------|-------------^---------|
    A-------------|-----2-------|--------|--4----2----1-------|-------------|---------|
    E-------------|-------------|--------|--------------------|--2----------|---------|
    
       A
    e-----|--^-A----|-|-^-|--|--------0----------|
    B--2--|--|-A----|-|-|-|--|--2--3-----3--2----|
    
  • +
    ¡Colabora con nosotros!
    Envíanos tu versión de esta canción
  • Tutorial
    HD
    Te Juro Que Te Amo - Tutorial de Guitarra ( Los Terricolas )
    Para Principiantes
    16:16
  • Tutorial
    HD
    Como tocar te juro que te amo en guitarra Los terricolas
    4:13

Letra de Te Juro Que Te Amo
Te juro que te amo
Afuera esta lloviendo
Por dentro estoy temblando
Porque tu te vas
(Porque yo me ire)
Muy pronto partiras
(Muy pronto partire)
Un tren desconocido
Pronto tomaras
Mo queda mucho tiempo
Te juro que te amo
Ahora estas llorando
Mas porque llorar
(Mas porque que llorar)
Si es que tu volveras
(Si es que yo volvere)
Y todo aquello nuestro
Tu recordaras
Y mi sentimiento
No lo cambiare jamas
Aunque sufra este tormento
Me quedas tu...
Y mi sentimiento
No lo cambiare jamas
Aunque sufra este momento
Me quedas tu
Te juro que te amo
Tu nombre estoy gritando
El tren esta partiendo
No me escucharas
(No te escuchare)
Que falta tu me haras
(Que falta yo te hare)
Contigo se va el mundo entero
Y tu te vas
Y mi sentimiento
No lo cambiare jamas
Aunque sufra este tormento
Me quedas tu...
Y mi sentimiento
No lo cambiare jamas
Aunque sufra este tormento
Me quedas tu
Y mi sentimiento
No lo cambiare jamas
Aunque sufra este tormento
Me quedas tu... u-u-u-uh




[Te Juro Que Te Amo chords][Te Juro Que Te Amo cifra]
© LaCuerda.net · aviso legal · privacidad · es · en · pt · contacto