Acordes de Guitarra » S »los Suaves » Si Pudiera (Tab)

Si Pudiera
los Suaves

Letras, Acordes y Tabs para Guitarra, Bajo y Ukulele

  • G      Am      Bm      C
    
    Aluego mientras kanta y kon ditorsión se repite esto:
    
    A      D      G      C
    A      D      G      C   D
    
    Y luego kambia:
    
    A           D        G                         C   
    Si allí vendieran billetes para el tren de otra oportunidad
    
    A       D      B                C
    Enkargaría un ticket de ida a la estación perdida
    
    A#        C                 D      
    Donde mi vida fue a deskarrilar
    
    Y para el estribillo los akordes de la Intro.
    
    
  • |-----3-----------------------0-----------3-------|
    |-------3---------1^0-----------3-----------3-----|
    |---------0-----2-----2-----0-----0-----0-----0---|
    |-------------2-----------0-----------2-----------|
    |-----------0-----------2-----------3-------------|
    |---3---------------------------------------------|
    
    VERS0 (DISTORSIÓN)
    |-------------------------------------------------------|
    |-------------------------------------------------------|
    |--------7-------5-------7-------5\7-------7-------5----|
    |----7---7---5---5---7---7---5---5\7---7---7---5---5----|
    |----7---5---5---3---7---5---5---3\5---7---5---5---3----|
    |----5-------3-------5-------3---------5-------3--------|
    
    SI PUDIERA
    A LA TIENDA DE LOS SUEÑOS
    IR A COMPRAR
    CON POCO DINERO
    TODO LO QUE HASTA AHORA
    
  • E|----3---------------------------0-----------3-------|
    B|------3-----------1p0-------------3-------0---0-----|
    G|--------0-------0-----0-------4-----4---0-------0---|
    D|----------0---2---------2---4---------------------2-|
    A|------------0-------------2-----------3-------------|
    E|--3-------------------------------------------------|
    
    Estrofa:
    
    Am        D
    Si pudiera
    G
    a la tienda de los sueños
    C
    ir a comprar
    Am          D
    con poco dinero
    G
    todo lo que hasta ahora
    C
    
  • +
    ¡Colabora con nosotros!
    Envíanos tu versión de esta canción

Letra de Si Pudiera
Aluego mientras kanta y kon ditorsión se repite esto:
Y luego kambia:
Si allí vendieran billetes para el tren de otra oportunidad
Enkargaría un ticket de ida a la estación perdida
Donde mi vida fue a deskarrilar
Y para el estribillo los akordes de la Intro.
No sé si me dejo algo, pero la verdad es ke voy algo ciego
así ke si falta algo me lo decís (joder, el vino de oferta del
Dia kada día es peor).




[Si Pudiera chords][Si Pudiera cifra]
© LaCuerda.net · aviso legal · privacidad · es · en · pt · contacto