Acordes de Guitarra » S »los Suaves » Dolores se llamaba Lola (Tab)

Dolores se llamaba Lola
los Suaves

Letras, Acordes y Tabs para Guitarra, Bajo y Ukulele

  • A                 E
    fuiste la niña de azul
    
    F#m               D
    en el colegio de mojas
    
    A               E
    clacetines y coletas
    
    F#m                 D
    y estbas loca por paco
    
    Y ASI SIGUE HASTA EL ESTRIBILLO QUE ES ASI:
    
    A              F#m
    las vueltas que da la vida
    
        D                   E
    el destino se burla de ti
    
    
  • -------------------------------------
    
    INTRO:
    
    e|-----------------|---------------|----------------| x4
    b|-----------------|---------------|----------------|
    g|-----------------|---------------|-------------7--|
    d|-2-------------2-|-------------4-|-------------7--|
    a|-0-0-2-0-4-2-0-2-|-0-2-0-4-2-0-4-|-0-2-0-4-2-0-5--|
    e|---------------0-|-------------2-|----------------|
    
    A                 E
    Fuiste la niña de azul
    F#m               D
    en el colegio de monjas
    A                 E
    calcetines y coletas
    F#m               D
    y estabas loca por Paco.
    A                 E
    
  • Faltan los solos de la cancion, si alguien los tiene le agradeceria
    me los enviara al correo,por lo demas creo q suena bien.
    Alguna sugerencia, o alguna modificacion a GALIPOTO@teleline.es
    
    
    P.M Palm mute
    
    
    INTRO
    e|----------------------------------------------------|
    B|-------------------------------------------------3--|
    G|-------------------------------------------------2--|
    D|-----------------2---------------4---------------0--|
    A|--0-0-2-0-4-2-0--2--0-2-0-4-2-0--4--0-2-0-4-2-0-----|
    E|-----------------0---------------2------------------|
    
    Si el el ultimo acorde te resulta dificil de hacer puedes hacer 
    el que esta situado al lado.
    e|---| 		e|---|
    B|-3-| 	  \ 	B|---|
    G|-2-| 	---\	G|-7-|
    D|-0-| 	---/	D|-7-|
    A|---| 	  /	A|-5-|
    E|---| 		E|---|
    
    
    RIFF 2
    e |------------------------------------------------------|
    B |------------------------------------------------------|
    G |----------------2----------------4--------------------|
    D |-0-0-2-0-4-2-0--2---0-2-0-
  • <---Riff1 (INTRO)--->
    e|----------------------------------------------------|
    B|----------------------------------------------------|
    G|-------------------------------------------------7--|
    D|--2--------------2---------------4---------------7--|
    A|--0-0-2-0-4-2-0--2--0-2-0-4-2-0--4--0-2-0-4-2-0--5--|
    E|-----------------0---------------2------------------|
    
    
    <---Riff2--->
    e|----------------------------------------------------|
    B|----------------------------------------------------|
    G|----------------------------------------------7^----|
    D|--7-7-9-7-9b9p7----7-9-7-9b9p7----7-9-7-9b9p7-------|
    A|----------------7--------------9--------------------|
    E|----------------------------------------------------|
    
    
    <---Riff3--->
    e|---------------------------------------------------------|
    
  • +
    ¡Colabora con nosotros!
    Envíanos tu versión de esta canción
  • Tutorial
    Cómo tocar 'Dolores Se Llamaba Lola' de Los Suaves (Tutorial para guitarra - www.shigaru.com)
    2:33

Letra de Dolores se llamaba Lola
fuiste la niña de azul
en el colegio de mojas
clacetines y coletas
y estbas loca por paco
Y ASI SIGUE HASTA EL ESTRIBILLO QUE ES ASI:
las vueltas que da la vida
el destino se burla de ti
donde vas bala perdida
donde vas triste de ti
donde vas triste de ti
LUEGO OTRA VEZ EL PUNTEO DEL PRINCIPIO Y SIGUE LA CANCION COMO SIEMPRE




[Dolores se llamaba Lola chords][Dolores se llamaba Lola cifra]
© LaCuerda.net · aviso legal · privacidad · es · en · pt · contacto