Acordes de Guitarra » S »los Suaves » Malas Noticias (Tab)

Malas Noticias
los Suaves

Letras, Acordes y Tabs para Guitarra, Bajo y Ukulele

  • + Tabulados de made in spain!                   +
    + [http://mades.kaos.es]                        +
    +++++++++++++++++++++++++++++++++++++++++++++++++
    
       LAm                     MIm
       La noche se esta cayendo
       FA                      SOL
       y con ella cae el tiempo,
       LAm                     MIm
       el día no sirbió de nada
       FA                      SOL
       tarde de nuves sin agua
       LAm                     MIm
       Hoy el cielo es de cemento,
       FA                      SOL
       parece que Dios esta muerto,
       LAm                     MIm
       golpean la puerta de casa,
       FA                      SOL
       mensajeros de desgracia.
    
       ...
  • ------
    
    E||------------------|-------0------------|---------0-----|-------0-----------|
    B||---1------1-------|----0-------0-------|---1--0--1-----|----0------0-------|
    G||-----2-------2----|-0-------------0----|---------------|-0------------0----|
    D||-------2----------|--------------------|-3-------------|-----------------0-|
    A||-0----------------|------------------2-|-3-------------|-------------------|
    E||----------------0-|--------------------|-------------3-|-------------------|
    
    La noche se está cayendo
    Y con ella cae el tiempo
    El día no sirvió de nada
    Tarde de nubes sin agua
    
    Cambio:
    -------
    
    |------------------|----------------|---------------|-----------------------|
    |------------------|----------------|---------------|-----------------------|
    |-2---5--4h5--x--7-|-------------5--|-5--4h5--x--5p-|-4---------------------|
    
  • +
    ¡Colabora con nosotros!
    Envíanos tu versión de esta canción

Letra de Malas Noticias
La noche se esta cayendo
y con ella cae el tiempo,
el día no sirbió de nada
tarde de nuves sin agua
Hoy el cielo es de cemento,
parece que Dios esta muerto,
golpean la puerta de casa,
mensajeros de desgracia.
...




[Malas Noticias chords][Malas Noticias cifra]
© LaCuerda.net · aviso legal · privacidad · es · en · pt · contacto
DINAMICO