Acordes de Guitarra » S »Soziedad Alkoholika » Rumore (Tab)

Rumore
Soziedad Alkoholika

Letras, Acordes y Tabs para Guitarra, Bajo y Ukulele

  • INTRO
    
    1)
    
    --12*--
    -------
    -------
    -------
    -------
    -------
    
    2) (La, la, ...)
    
    ----------
    ----------
    ----------
    --2---7---
    --2---7---
    --2*--7*--
    
    
    VERSO (Rumore, no mi siento...)
    
    Tocar lo mismo que en Intro 2
    
    
    PRE-CHORUS
    
    ------
    ------
    ------
    --2---
    --2---
    --2*--
      PM
    
    
    CHORUS (E ritornare al tempo...)
    
                                           xxxxxxxxxxxx
    --------------------------------------¡------------¡--
    --------------------------------------¡------------¡--
    --------------------------------------¡------------¡--
    --7-7--5-5-5--4-4--2-2-2---5-5--4-4-4-¡-0-0--2-2-2-¡--
    --7-7--5-5-5--4-4--2-2-2---5-5--4-4-4-¡-0-0--2-2-2-¡--
    --7-7--5-5-5--4-4--2-2-2---5-5--4-4-4-¡-0-0--2-2-2-¡--
    
    La segunda vez que toques este riff en vez de tocar lo que
    pone en la zona marcada con 'x' toca esto:
    
    -------------
    -------------
    -------------
    --2-2-2--9---
    --2-2-2--9---
    --2-2-2--9*--
             PM
    
    
    POST-CHORUS
    
    1)
    
    ------
    ------
    
  • +
    ¡Colabora con nosotros!
    Envíanos tu versión de esta canción






[Rumore chords][Rumore cifra]
© LaCuerda.net · aviso legal · privacidad · es · en · pt · contacto
DINAMICO