Acordes de Guitarra » S »Sin Bandera » Igual que yo (Tab)

Igual que yo
Sin Bandera

  • Letra y Acordes
    e|-----0---0-----------0---0---------------
    B|-------4---------------4-----------------
    G|-----------------------------------------
    D|---4-------4--6----4-------4--6----------
    A|-----------------------------------------
    E|--0---------------0----------------------
    
    
    e|------0---2---2------0---2----2------
    B|--------4--------------4-------------
    G|-------------------------------------
    D|----4------4-------4--------4--------
    A|--2--------------2-------------------
    E|-------------------------------------
    
    
    e|------0---0------------0---0--------------
    B|--------4----------------4----------------
    G|--------------2-----------------2---------
    D|----4-------4--------4--------4-----------
    
  • Letra y Acordes
    G  D  C  Em D
    
    
    ARPEGIADO:
    G                      D
    Porque sientes la pasión
                            C*
    que arde siempre en tu respiración
    Em*            D
    Así igual que yo
    
    G              D
    Porque ansiedad
                         C*
    De vivir soñando en libertad
    Em*            D
    Así igual que yo
    
    C                  G                      C*
    Porque tienes una fe imposible de romper
    
  • Letra y Acordes
    F                     C
    Porque sientes la pasión que arde
                   Dm           A#            C
    siempre en tú respiración, así igual que yo.
    F                      C
    porque tienes la ansiedad de vivir
                   Dm      A#            C
    soñando en libertad, así, igual que yo.
    
    
    A#       C         F       A           A#
    Porque tienes una fe, imposible de romper
             C          F           C
    porque sientes esa luz aunque no la ves;
    A#       C           F           A           A#
    Porque aprendes a volar, aunque tengas que caer
             C              F          C
    porque sabes que no hay ya, nada que perder.
    
    
    
  • Tablatura
    e|-5----5----5----5----5----5----5----5----
    B|---2----2----2----2----3----3----3-----3-
    G|-----------------------------------------
    D|-----------------------------------------
    A|-----------------------------------------
    E|-----------------------------------------
    
    e|-5----5----5----5----5----5----5----5----
    B|---4----4----4----4----3----3----3-----3-
    G|-----------------------------------------
    D|-----------------------------------------
    A|-----------------------------------------
    E|-----------------------------------------
    
    RIFF 1°
           E
    e|-----0---0-----|-----0---0------
    B|-------4---4---|-------4---4----
    G|---4---------4-|---4---------4--
    D|---------------|----------------
    
  • +
    ¡Colabora con nosotros!
    Envíanos tu versión de esta canción

Letra de Igual que yo
Se repite el intro 2 veces en la 1ra parte de la canción
RIFF1
Por que sientes la pasión
Que arde siempre en tu respiración
Así igual que yo
Por que tienes la ansiedad
De vivir soñando en libertad
Así igual que yo
RIFF 2
RIFF2 igual se toca dos veces en la sig parte
Por que tienes una fe imposible de romper
Por que sientes esa luz aunque no la ves
Por que aprendes a volar aunque tengas que caer
Por que sabes que no hay ya nada que perder
Por eso tu me salvaras, me guiaras, me sanaras
Si caigo alguna vez tan solo lléname la fe y sanare
Por eso yo te cuidare, te esperare, vigilare
Que tengas que volver cuando tu amor muera de sed
Y te amare, y te amare
RIFF1
Por que sabes que el amor
Es lo que hace a un hombre algo mejor
Así igual que yo
RIFF2
Por que tienes una fe imposible de romper
Por que sientes esa luz aunque no la ves
Por aprendes a volar aunque tengas que caer
Por que sabes que no hay ya nada que perder
Por eso tu me salvaras, me guiaras....
Eso es todo ojala le puedan entender
Y sino mandenme un correo a
jor_g3@hotmail.com RBK T.Q.M



© LaCuerda.net · aviso legal · privacidad · contacto