Acordes de Guitarra » S »Sin Bandera » De viaje (Tab)

De viaje
Sin Bandera

Letras, Acordes y Tabs para Guitarra, Bajo y Ukulele

  • Intro: C - G - F - C - G - F
    
    C
    En este viaje que cada mañana
         G
    Lleno de sueños comienzo en la cama
                 Am
    Soy un turista que a veces no entiende 
                 Em                 F
    El raro idioma que habla la gente.
    
    
    C                     
    Tantas aduanas entre unos y otros
                   G
    Tantas fronteras volviéndonos locos
                   Am
    Hay tantos muros entre las miradas 
                 Em                     F
    Que aunque nos vemos nunca vemos nada.
    
  •        C9      G5     Fmaj7-F         C9      G5     Fmaj7-F
    E------0---0---3----------------------0---0---3----------------
    B--1-3-------0-3-1-0--1-----1-----1-3-------0-3-1-0--1-----1---  
    G--------0----------------2-------------0----------------2-----  
    D-----------------------3------------------------------3-------  
    A------3------------------------------3------------------------
    E--------------3------1-----------------------3------1---------      
     
    
    
              C9                            G5
    En este viaje que cada mañana lleno de sueños comienzo en la cama
              Am                                     Fmaj7                 F
    Soy un turista que a veces no entiende el raro idioma que me habla la gente
            C9                                    G5
    Tantas aduanas entre unos y otros tantas fronteras volviéndonos pocos
          Am7                                       Fmaj7               F
    Hay tantos muros entre las miradas que aunque nos vemos  nunca vemos nada
      
               Em               Am                 G5                   C9
    
  • E||------------------|--------------8--10--|--12---------12----10----|
    B||------------------|---------------------|--------8----------------|
    G||------------------|---------------------|--------0----------------|
    D||------------------|---------------------|-------------------------|
    A||------------------|---------------------|-------------------------|
    E||------------------|---------------------|--8----------------------|
    
    
    -------8------7----8----|-------------3----5----|--20---|
    ------------8-----------|----------6------------|-------|
    --0---------------------|-------5---------------|-------|
    -------7----------------|-----------------------|-------|
    ------------------------|--8--------------------|-------|
    ------------------------|-----------------------|-------|
    
    
    aqui metemos la guitarra:
    
           C9      G5     Fmaj7-F         C9      G5     Fmaj7-F
    E------0---0---3----------------------0---0---3----------------
    
  • esta cancion es la segunda que mando espero que les guste.
    
    la mano izquierda toca la parte de arriba
    y la mano derecha la parte de abajo.
    las notas sin numero son acordes completos
    y con numero son solo notas. y hay les va el intro.
    
    INTRO
          C          C          F2 A2 C3 E3
    --------------------------------------------
    C4 D4 E4 G3 E4 G3  C4 G3 D4             C5
                   D4     C4
    
    C2 G2 E2 E2    G2 G2           C2 E2 G2 B2
    ------------------------------------------------
          C3    E3 D3     B2 C3 D3             C5 E5
          E3
    ESTROFA
             C
    en este viaje que cada mañana
              C
    lleno de sueños comienso en la cama
             F
    soy un turista que aveses no entiende
             Fm
    el raro idioma en que me abla la jente
             C
    tantas aduanas entre unos y otros
               C
    tantas fronteras volviendonos locos
                F
    hay tantos muros entre las miradas
                   Fm
    que aunque nos vemos nunca vemos nada.
    
    
    CORO
       E        
  • +
    ¡Colabora con nosotros!
    Envíanos tu versión de esta canción

Letra de De viaje
En este viaje que cada mañana
Lleno de sueños comienzo en la cama
Soy un turista que a veces no entiende
El raro idioma que habla la gente.
Tantas aduanas entre unos y otros
Tantas fronteras volviéndonos locos
Hay tantos muros entre las miradas
Que aunque nos vemos nunca vemos nada.
Estribillo
He visto ruinas de sueños caídos
Mares de fe, desiertos de olvido
Y cuando más me encontraba perdido
Un mapa de mi me entregaste tu.
Continuemos el viaje los dos
Mismo cielo, misma habitación
Ya no voy a buscar, eres tú el lugar
Que soñé, de viaje te amare.
Perdí mi tren por quedarme dormido
En el auto de creerme el vencido
Corrí las calles del valor perdido
Pensé que el viaje no tenia sentido.
Estribillo
He visto ruinas de sueños caídos
Mares de fe, desiertos de olvido
Y cuando más me encontraba perdido
Un mapa de mi me entregaste tu.
Continuemos el viaje los dos
Mismo cielo, misma habitación
Ya no voy a buscar, eres tú el lugar
Que soñé, de viaje te amare.
Continuemos el viaje los dos
Mismo cielo, misma habitación
Ya no voy a buscar, eres tú el lugar
Que soñé, de viaje… te amare
Te amareeee.




[De viaje chords][De viaje cifra]
© LaCuerda.net · aviso legal · privacidad · es · en · pt · contacto