Acordes de Guitarra » S »Silvio Rodriguez » El Mayor (Tab)

El Mayor
Silvio Rodriguez

Letras, Acordes y Tabs para Guitarra, Bajo y Ukulele

  • D                    A   Bm  G
      El hombre se hizo siempre
    
                 D
    de todo material
    
    A                A  Bm  G
      de villas senoriales
    
                   D
    o barrio marginal
    
    A                 A  Bm A
      toda epoca fue pieza
    
                  A  Bm  A
    de un rompecabezas
    
                   G  F#m
    para subir la cuesta
    
  • D6/F#     Asus       Gmaj
    E[--2--]   E[--0--]  E[--3--]
    B[--3--]   B[--3--]  B[--3--]
    G[--4--]   G[--2--]  G[--4--]
    D[--4--]   D[--2--]  D[--5--]
    A[--2--]   A[--0--]  A[--5--]
    E[--2--]   E[-----]  E[--3--]
    
    INTRO:D
    
    D                    A   Bm  Gmaj
      El hombre se hizo siempre
    
    D                A
    de todo material
    
       A      A      Bm   Gmaj
    de villas senoriales
    
                   D  A
    
  •     Re                    La Sim  Sol    (355433)   Re                La
    e:------2-h-3-h-2-h-0--------------------------------------2-h-0---------------|
    B:---------------------3--2--3--------3-h-5-h-3---3------3-------3--0---2-h-3-0|
    G:----------------------------------4-----------6------2--------------2--------|
    D:---0----------------------------------------------0------0-------------------|
    A:------------------------0--2--0-----------------------------------2----------|
    E:--------------------------------3--------------------------------------------|
    
    
         Sim*(x24430)  La           Sol   Fam#   Mim    Sol     Re               La
    e:---0----------------------------------------------3--------------2-h-0-------|
    B:-------------------3-h-2-0----3------2------0----------0-------3--------3--2-|
    G:-2---4---4-------2---------2------4------2------0---0--------2---------------|
    D:--------------------------------5------4------2-----------0------0-----------|
    A:---2--------2--0-----------------------------------------------------------0-|
    E:-------2----------------------3------2------0-----3--------------------------|
    
                                                        
                       RE
    e:-----------------------0---2-3-3-3-h-2-h-0-------0---2|
    
  • ------------2h3p2-------------------------------------------------------------------------2-0-----0----------
    ---------------------3----------2----------3----------------------3h5p3----3-------3---------3----2--------
    ------2----------------2----------2----------4--------------4-4----------6--------2---2---------------------
    --0-----------------------0----------2----------4--------------------------------0-----------------2---------
    --------------------------------0-----------2----------0------------------------------------------------------
    -----------------------------------------------------------3---------------------------------------------------
    
                                                                                      1era vez
    -----------------------------------------------------------------------------------------3----------------2--0----------------------
    ----2h3p2--0-----5--3-----------------2h3p2--0--------3--------2--------0-------------0--------3-------2----------2--3-----
    --2------------2---------4------------2-------------2----------4--------2--------0------0--------2----------------2-------------
    -----------------------------4---------------------------------5--------4--------2---------------0----------------2---2-----------
    --------------------2-----------2-0-------------------------------------------------------------------------0-------------0--------
    -------------------------------------------------------------3--------2--------0-------3--------------------------------------------
    
                                                                                      2da vez
                                                                                     -----3--2----------0-----------0----------3p2---0-2-----0-----------
                                                                                     ---3------2------0--------0h3----3-------------------3----2----------
                                                                                     -4----------2--0--------0-----------2--------------------------2------
                                                                                     ------------------------------------0-----0-----------------------------
    
  •    RE        RE        RE         LA,SIm
    e+------2---|------2---|-----2---|---------
    B+----------|----------|---------|----3...-
    G+--------2-|--------2-|-------2-|---------
    D+-0...-----|-0....----|-0...----|---------
    A+----------|----------|---------|-0..2...0
    E+----------|----------|---------|---------
                             e.h.s.h siem-pre
    
     SOL          RE             LA             SI
    |-------3-3-|---------2-0---|-------0----|-----------
    |-0...--0-0-|-------3-----0-|-----2---^x-|----^-v(rasguea pulgar)
    |-----0-----|-----2---------|---------^--|----^-v----
    |-----------|-0...----------|---------^--|----^-vx---
    |-----------|---------------|-0...-------|-2--^------
    |-3...------|---------------|------------|---------0-
         detodomateriaaal          devillas señoriaales
    
     SOL   v          RE            LA       SIm
    |------3-^-v-^|-------2-----0..|-------0---|------------
    
  • (0:44')
    
    Verso "Mortales ingredientes..."
    
    G|-----------------|
    D|-----------------|
    A|-0-2-0-----5-5-0-|
    E|-------3-3-------|(x2)
    
    G|-4---4-2---4-4---4-2---4-----------------------|
    D|---4-----2-----4-----2---2-4-5-4-2-5---7--7-7--|
    A|-------------------------------------5---------|
    E|-----------------------------------------------|
    
    G|------------------------------|
    D|---7---5-4-2-5---7--7-7---7---|
    A|-7-------------5--------7---7-|
    E|------------------------------|
    
    Estribillo "Va cabalgando..."
    
    G|-----------------------------------------|
    D|---------------5-4-2-------7-7-----------|
    A|-5---------5---------5---7-----7---7---7-|
    E|---5-3-5-5---5---------5---------5---5---|
    
    G|---------------------------------------------|
    D|-----------------2-4-5-4-2-------7-5-4-----7-|
    A|-5-0---------5-------------5---7---------7---|
    E|-----5-3-5-5---5-------------5---------5-----|
    
    Intervalo
    
    G|-----------------|
    D|-----------------|
    A|-0-2-0-----5-5-0-|
    E|-------3-3-------|(x2)
    
    G|---------------
  • +
    ¡Colabora con nosotros!
    Envíanos tu versión de esta canción

Letra de El Mayor
El hombre se hizo siempre
de todo material
de villas senoriales
o barrio marginal
toda epoca fue pieza
de un rompecabezas
para subir la cuesta
del gran reino animal
con una mano negra
y-otra blanca mortal
Mortales ingredientes
armaron al mayor
luz de terratenientes
y de revolucion
destreza de la esgrima
sucesos como un preso
Amalia abandonada
por la bala
la verguenza el amor
o un fusilamiento
un viejo cuento
modelaron su adios
Va cabalgando
el mayor con su herida
y mientras mas mortal
el tajo es mas de vida
Va cabalgando
sobre una palma escrita
y a la distancia
de cien a/os resucita
Trota sobre la espuma
seguido por un mar
de negros en machete
y sin encadenar
ordena a su corneta
el toque de deguello
y a un siglo de distancia
entona nuestra cancion
y con recia garganta
canta espanta lejos
Va cabalgando...




[El Mayor chords][El Mayor cifra]
© LaCuerda.net · aviso legal · privacidad · es · en · pt · contacto