Tablatura para Guitarra de Silvio Rodriguez: El Mayor
Conexión · Inscripción
Letras y Acordes
Pantalla Completa
Imprimir
Versión Texto
Añadir Favorito
Otras Versiones

Mostrar Diagramas
Desfile Automático
Manipular Acordes
Formato del Texto


El Mayor(TAB)

Silvio Rodriguez

calidad:
srod0543
AUTOR: Silvio Rodríguez
ALBUM: Dias Y Flores: Song of the Nueva Trova Cubana
Enviado por julien
INTRO

------------2h3p2-------------------------------------------------------------------------2-0-----0----------
---------------------3----------2----------3----------------------3h5p3----3-------3---------3----2--------
------2----------------2----------2----------4--------------4-4----------6--------2---2---------------------
--0-----------------------0----------2----------4--------------------------------0-----------------2---------
--------------------------------0-----------2----------0------------------------------------------------------
-----------------------------------------------------------3---------------------------------------------------

                                                                                  1era vez
-----------------------------------------------------------------------------------------3----------------2--0----------------------
----2h3p2--0-----5--3-----------------2h3p2--0--------3--------2--------0-------------0--------3-------2----------2--3-----
--2------------2---------4------------2-------------2----------4--------2--------0------0--------2----------------2-------------
-----------------------------4---------------------------------5--------4--------2---------------0----------------2---2-----------
--------------------2-----------2-0-------------------------------------------------------------------------0-------------0--------
-------------------------------------------------------------3--------2--------0-------3--------------------------------------------

                                                                                  2da vez
                                                                                 -----3--2----------0-----------0----------3p2---0-2-----0-----------
                                                                                 ---3------2------0--------0h3----3-------------------3----2----------
                                                                                 -4----------2--0--------0-----------2--------------------------2------
                                                                                 ------------------------------------0-----0-----------------------------
                                                                                 -------------------------------------------------------------0----------
                                                                                 -3------2------0-----3-------------------------------------------

---------3-2h0-------------0------2-------3---3p2-0------------------0-------2-------3-3-3-3h2-0----------------------------
------3-----------3--------3-------3------3--------------3-------------3-------3-------3-----------------3-------------------------
---2---------------------2-------2------2-------------------2--------2-------2-------2----------------------------------------------
-----------------------0--------------------------------------------0------------------------------------------------------------------
----------------------------------------------------------------------------------------------------------------------------------------
----------------------------------------------------------------------------------------------------------------------------------------


VERSO 

D A Bm G D A El hombre se hizo Siem - pre de todo material ---------2------------------------------------------------------------------------------------2-0-----0-------------------------- --------------3------------------2---------3------------------------0------------------3---------3-----2----------------------- ----2------------0-----------------2---------4----------------0-------0----0-------2---2----------------2-------------------- -0------------------------------------2---------4-----------0---0--------0-------0------------------2------------------------- ---------------------------------0---------2----------0-------------------------------------------------------------------------- ----------------------------------------------------------3-----------------------------------------------------------------------
A Bm G D A De villas se - ño - ria - les o barrio marginal ------------------------------------------------------------------------------------------------2-0-----0------------------------ -------------2---------------------2---------3------------------------0------------------3---------3----2----------------------- ---------2------2--------------------2---------4----------------0-------0----0-------2---2---------------2------------------- -----2----------------------------------2---------4-----------0---0--------0-------0-----------------2------------------------- ------------------------------------0---------2----------0----------------------------------------------------------------------- -------------------------------------------------------------3--------------------------------------------------------------------
Bm A Bm A toda epoca fue pie - za de un rompeca - be - zas ----------------------------------------------------------------------------------------------------------------------------------- -------------2-----------------3------3---------2-----------2-----------------3--------3-----------2--------------------------- ---------2------2-----------4------4---------2----------2-----2------------4-------4-----------2------------------------------- -----2------------------------------------------------2---------------------------------------------------------------------------- --------------------------2--------------2-0-----------------------------2------------------2-0---------------------------------- ----------------------------------2------------------------------------------------2-----------------------------------------------
G F#m Em G D A para subir la cues - ta del gran reino animal ----------------------------------------------3--------3---------------------------0--0------------------- -----------2-----3--------2--------0-------------0--------------3-------0h2-----------2----------------- --------2-----2-------4--------2--------0-----0--------------2-------2-------2--------------------------- -----2--------------5--------4--------2--------------0----------------------------------------------------- -----------------------------------------------------------------------0------------------------------------- ------------------3--------2--------0-------3--------------------------------------------------------------
G F#n Em G D A con una mano ne - gra y o - tra blan - ca mortal ----------------------------------------------3---------3------------------------------0--0---------------- ----------2------3--------2--------0--------------0---------------3---------0h2------------3------------ -------2----2---------4--------2--------0------0---------------2---------2-------2----------------------- ----2---------------5--------4--------2----------------0-------------------------------------0------------- --0-----------------------------------------------------------------------0---------------------------------- ------------------3--------2--------0--------3-------------------------------------------------------------- Mortales ingredientes armaron al mayor luz de terratenientes y de revolución destreza de la esgrima sucesos como un preso Amalia abandonada por la bala, la vergüenza, el amor. O un fusilamiento un viejo cuento modelaron su adiós. CORO Va ca-bal-gan-do el Ma-yor con su herida --------------------------------------2-----2--3---------------------------------------------------------------- ------------------------------------3-----3-----------3-------2------------------------------------------------ -2-2----------------------------2------2----------0---------------2----------------------------------------- ------------------------0----------------------------------------------------0----------------------------------- --------0-----2---4---------0---------------------------0---------------------------4---2---0--------------- ------------------------------------------------3--------------------------------------------------------------- y mientras mas mortal el tajo es mas de vida ---------------------------------------------------3----------2--------------------0-0--------------------- ---------------3-----------2----------0-------------0----0-------3------0h2------------------------------- ---------5--------5----5-----2---2------0---0--------0-------2------2-------2--------------------------- ------4----4--------4----------4-----------2----------------0---------------------------------------------- -----------------------------------------------------------------------0-------------------------------------- ---3-----------3-----------2----------0----------3----------------------------------------------------------- va cabalgando sobre una palma escrita y a la distancia de cien años resucita VERSO Trota sobre la espuma seguido por un mar de negros en machete y sin encadenar ordena a su corneta un toque de a degüello y a un siglo de distancia entona nuestra canción y con recia garganta canta, espanta lejos
LA maldición.
Este fichero es trabajo propio de su transcriptor y representa su interpretación personal de la canción. El material contenido en esta página es
para exclusivo uso privado, por lo que se prohibe su reproducción o retransmisión, así como su uso para fines comerciales.

© LaCuerda.net · Aviso Legal · Privacidad