Acordes de Guitarra » S »Silvio Rodriguez » Canción del Elegido (Tab)

Canción del Elegido
Silvio Rodriguez

Letras, Acordes y Tabs para Guitarra, Bajo y Ukulele

  •     A    D    Bm   E    F#m
    E|--0----2----2----0----2---
    B|--2----3----3----0----2---
    G|--2----2----4----1----2---
    D|--2----0----4----2----4---
    A|--0---------2----2----4---
    E|-----------------0----2---
    
    
    Tab.
    E|-------0--------------
    B|----3-----3--2--0-----
    G|-------------------2--
    D|-------2--------------
    A|-0-----------------0--
    E|----------------------
    
    
    
         A
    
  • Intro: LA
    
      LA
    A)Siempre que se hace una historia
      SIm         RE      MI*
    se habla de un viejo, de un niño de sí,
    RE                 MI*
    pero mi historia es difícil:
                    LA
    no voy a hablarles de un hombre común.
    FA#                     RE
    Haré la historia de un ser de otro mundo,
       MI    (VI-2-4)   LA
    de un animal de galaxia.
    FA#                      RE
    Es una historia que tiene que ver
       MI     (VI-2-4)LA
    con el curso de la Vía Láctea.
    RE        MI        FA#m
    Es una historia enterrada.
    
  •      A    A*   D    D*   Bm   E    E*   F#m  F#
    Eb|--0----5----2----2----2----0----4----2----2---
    Bb|--2----5----3----3----3----0----5----2----2---
    Gb|--2----6----2----2----4----1----4----2----3---
    Db|--2----7----0----4----4----2----6----4----4---
    Ab|--0----7---------5----2----2----7----4----4---
    Eb|-------5-------------------0---------2----2---
    
    Intro Versión Original:
    
    Eb|---------0-------------   x4
    Bb|---0-2-3---3-2h0-------
    Gb|-2---------------------
    Db|-------2---------------
    Ab|-0-----------0---------
    Eb|-----------------------
    
     A
     Siempre que se hace una historia
                    Bm          D*       E*
    
  • Afinacion estandar       (E)  (A)  (D)  (G)  (B)  (E)
    
    sabemos que esta dedicada para Ernesto (El Che) Guevara
    de hecho fue escrita para el
    pero yo dedico mi trabajo a mi madre
    que esta en el cielo, a mi padre que
    es mi motor mi ejemplo de vida y a tan bien para
    una flor que va al colegio...
    esta es que esta en el guitar pro 5
    pero como allí viene con los bajos separados aquí los junte
    y pues estaré aportando canciones así que están en la red
    pero no tabuladas en lacuerda.net es mi primer aporte
    así que si algo esta mal corrijanlo o díganme
    
    VERSO 1
                       x4
    e|---------0-------||---------0----------------0--------------0--------2-|
    B|-------3---3-2---||-------3---3-2----------3---3-2--------0--------3---|
    G|-----2---------2-||-----2---------2------2---------2-------------2-----|
    D|---2---2-----2---||---2---2-----2------2---2------------4------0-------|
    
  • +
    ¡Colabora con nosotros!
    Envíanos tu versión de esta canción
  • Tutorial
    HD
    Como tocar Cancion del elegido Silvio Rodriguez
    11:17

Letra de Canción del Elegido
Tab.
Siempre que se hace una historia
se habla de un viejo, de un niño o de sí,
pero mi historia es distinta:
no voy a hablarles de un hombre común.
Haré la historia de un ser de otro mundo,
de un animal de galaxia.
Es una historia que tiene que ver
con el curso de la Vía Láctea.
Es una historia enterrada.
Es sobre un ser de la nada.
Nació de una tormenta
en el sol de una noche,
el penúltimo mes.
Fue de planeta en planeta
buscando agua potable,
quizás buscando la vida
o buscando la muerte
eso nunca se sabe.
Quizás buscando siluetas
o algo semejante
que fuera adorable,
o por lo menos querible,
besable, amable.
El descubrió que las minas
del rey Salomón
se hallaban en el cielo
y no en el África ardiente,
como pensaba la gente.
Pero las piedras son frías
y le interesaban calor y alegrías.
Las joyas no tenían alma,
sólo eran espejos, colores brillantes.
y al fin bajo hacia la guerra
¡perdón! quise decir a la tierra.
Supo la historia de un golpe,
sintió en su cabeza cristales molidos
y comprendió que la guerra
era la paz del futuro:
lo más terrible se aprende enseguida
y lo hermoso nos cuesta la vida.
La última vez lo vi irse
entre humo y metralla,
contento y desnudo:
iba matando canallas
con su cañón de futuro.
iba matando canallas
con su cañón de futuro.




[Canción del Elegido chords][Canción del Elegido cifra]
© LaCuerda.net · aviso legal · privacidad · es · en · pt · contacto