Acordes de Guitarra » S »Silvio Rodriguez » Quien Fuera (Tab)

Quien Fuera
Silvio Rodriguez

Letras, Acordes y Tabs para Guitarra, Bajo y Ukulele

  • G                       Em
     Estoy buscando una palabra
    G                       Em
     en el umbral de tu misterio
    C                    C/B
     quien fuera Ali Baba
    Am7                       X24030
     quien fuera el mítico Simbad
                                   C
     quien fuera un poderoso sortilegio
     D                   G
     quien fuera encantador
    
    G Em G Em
    
    Estoy buscando una escafandra
    al pie del mar de los delirios
    quien fuera Jacques Cousteau
    quien fuera Nemo el capitán
    quien fuera el batiscafo de tu abismo
    
  • INTRO(2): G Em G Em C Am7 Bm C D G
    
    G                       Em
     Estoy buscando una palabra
    G                       Em
     en el umbral de tu misterio
    C                    Am7
     quien fuera Ali Baba
                                  Bm
     quien fuera el mitico Simbad
                                   C
     quien fuera un poderoso sortilegio
     D                   G
     quien fuera encantador
    
    INTRO: G Em G Em
    
    G                       Em
     Estoy buscando una escafandra
    G                       Em
    
  • E-|-----------------------------------------------------------------
    B-|---------3--------3----------------------3--------3--------------
    G-|-------0--------0----0--------2--------0--------0----0--------2--
    D-|-----4--------4--------4-2-2--4------4--------4--------4-2-2--4--
    A-|-----------------------------------------------------------------
    E-|--3--------3----------------------3------------------------------
         
    E-|--------------------------------------------------------0-----2------
    B-|--------3-----3------------3-----3--------3-------3---3-----3---3----
    G-|------0-----0---0----0---0-----0--------0---0---0---0-----0-------2--
    D-|----4-----4------------4-----4--------4-------4----------------------
    A-|--3----------------0----------------2--------------------------------
    E-|---------------------------------------------------------------------
    
    E-|--------2-0---3-2-020---------------
    B-|------3-----3---------3---0---------
    G-|----0-------------------2---0-------
    D-|--------------0---------------------
    A-|-3----------------------------------
    E-|------------------------------------
    
  • e|--------------------------------------------------------------|
    B|---------3-------3-------------------3------3-----------------|
    G|-------0-------0---0--------2------0------0---0--------2------|
    D|-----4-------4--------4-2-2------4------4--------4-2-2--------|
    A|--------------------------------------------------------------|
    E|--3--------3----------0---0-2--3-----------------0---0-2------|
    
    e|-----------------------------------------------|
    B|--------3-----3---------------3-----3----------|
    G|------0-----0---0-----------0-----0---0--------|
    D|----4-----4-------(4)-----4-----4------(4)-----|
    A|--3---------------------0----------------------|
    E|-----------------------------------------------|
    
    e|--------------------0-----2--------------2---0----3-2-0h2p0-------------|
    B|--------3-----3---3-----3-----3--------3--------3-----------3---0-------|
    G|------0-----0---0-----0-----0---0----0-----0------------------2---0-----|
    D|----4-----4---------------------------------------0---------------------|
    A|--2--------------------------------3------------------------------------|
    E|------------------------------------------------------------------3-----|
    
  • Bueno mis mal ponderados amigos taringueros,
    como todos ya sabemos como se toca esta bella
    canción del maestro porque los tabs que presentaron
    en lacuerda.net son los correctos al igual que los
    acordes esta vez les traigo la línea melódica.
    
    es decir que les traigo las notas para el solfeo y para
    que posteriormente
    podamos cantar esta canción bien afinaditos
    (eso para los que tenemos un oido medio arcaico jaja)
    así que así les presento este tab con la línea melódica,
    
    lo unico que teneis que hacer es simplemente tocarla melodía
    e irla solfeando o tarareando pero en nota correcta,
    cuando ya dominen bien el solfeo podrán introducir la letra
    y les apuesto mis amigos que de esta manera podrán cantar
    esta canción bien afinadita y sin romper el oido de nadie.
    Es esto lo principal para aprender a cantar jajaja.
    
    _______________________________________________________________
    
    
    
    
    primero este ejercicio para calentar la garganta
    y para afinar el oído (una vez mas les digo que este 
  • +
    ¡Colabora con nosotros!
    Envíanos tu versión de esta canción
  • Tutorial
    HD
    Como tocar Quien fuera Silvio Rodriguez + Noticias del canal
    9:27
  • Tutorial
    HD
    Como tocar Quien Fuera LOS BUNKERS en Guitarra Acustica (HD)
    Tutorial
    7:17
  • Tutorial
    HD
    Como tocar Quien Fuera - Silvio Rodriguez HD
    2:54

Letra de Quien Fuera
Estoy buscando una palabra
en el umbral de tu misterio
quien fuera Ali Baba
quien fuera el mitico Simbad
quien fuera un poderoso sortilegio
quien fuera encantador
Estoy buscando una escafandra
al pie del mar de los delirios
quien fuera Jacques Cousteau
quien fuera Nemo el capitán
quien fuera el batiscafo de tu abismo
quien fuera explorador
(Rasgueo Fuerte)
Corazon, corazon oscuro
corazon, corazon con muros
corazon, que se esconde
corazon, que esta donde
corazon, corazon en fuga
herido de dudas y amor.
Estoy buscando melodia
para tener como llamarte
quien fuera ruisenor
quien fuera Lennon y Mcartney
Sindo Garay, Violeta, Chico Buarque
quien fuera tu trovador
(Rasgueo Fuerte)
Corazon, corazon oscuro
corazon, corazon con muros
corazon, que se esconde
corazon, que esta donde
corazon, corazon en fuga
herido de dudas y amor.




[Quien Fuera chords][Quien Fuera cifra]
© LaCuerda.net · aviso legal · privacidad · es · en · pt · contacto